  0
SECTION
  2
HEADER
  9
$ACADVER
  1
AC1015
  9
$ACADMAINTVER
 70
    10
  9
$DWGCODEPAGE
  3
ANSI_932
  9
$INSBASE
 10
0.0
 20
0.0
 30
0.0
  9
$EXTMIN
 10
-3101.612583372098
 20
-2513.107059052756
 30
0.0
  9
$EXTMAX
 10
3794.731702195109
 20
2055.885163425733
 30
0.0
  9
$LIMMIN
 10
0.0
 20
0.0
  9
$LIMMAX
 10
0.0
 20
0.0
  9
$ORTHOMODE
 70
     1
  9
$REGENMODE
 70
     1
  9
$FILLMODE
 70
     1
  9
$QTEXTMODE
 70
     0
  9
$MIRRTEXT
 70
     1
  9
$LTSCALE
 40
101.6
  9
$ATTMODE
 70
     1
  9
$TEXTSIZE
 40
0.0
  9
$TRACEWID
 40
1.0
  9
$TEXTSTYLE
  7
Standard
  9
$CLAYER
  8
0
  9
$CELTYPE
  6
Continuous
  9
$CECOLOR
 62
   256
  9
$CELTSCALE
 40
1.0
  9
$DISPSILH
 70
     0
  9
$DIMSCALE
 40
1.0
  9
$DIMASZ
 40
0.18
  9
$DIMEXO
 40
0.0625
  9
$DIMDLI
 40
0.38
  9
$DIMRND
 40
0.0
  9
$DIMDLE
 40
0.0
  9
$DIMEXE
 40
0.18
  9
$DIMTP
 40
0.0
  9
$DIMTM
 40
0.0
  9
$DIMTXT
 40
0.18
  9
$DIMCEN
 40
0.09
  9
$DIMTSZ
 40
0.0
  9
$DIMTOL
 70
     0
  9
$DIMLIM
 70
     0
  9
$DIMTIH
 70
     1
  9
$DIMTOH
 70
     1
  9
$DIMSE1
 70
     0
  9
$DIMSE2
 70
     0
  9
$DIMTAD
 70
     0
  9
$DIMZIN
 70
     0
  9
$DIMBLK
  1

  9
$DIMASO
 70
     1
  9
$DIMSHO
 70
     1
  9
$DIMPOST
  1

  9
$DIMAPOST
  1

  9
$DIMALT
 70
     0
  9
$DIMALTD
 70
     2
  9
$DIMALTF
 40
25.4
  9
$DIMLFAC
 40
1.0
  9
$DIMTOFL
 70
     0
  9
$DIMTVP
 40
0.0
  9
$DIMTIX
 70
     0
  9
$DIMSOXD
 70
     0
  9
$DIMSAH
 70
     0
  9
$DIMBLK1
  1

  9
$DIMBLK2
  1

  9
$DIMSTYLE
  2
Standard
  9
$DIMCLRD
 70
     0
  9
$DIMCLRE
 70
     0
  9
$DIMCLRT
 70
     0
  9
$DIMTFAC
 40
1.0
  9
$DIMGAP
 40
0.09
  9
$DIMJUST
 70
     0
  9
$DIMSD1
 70
     0
  9
$DIMSD2
 70
     0
  9
$DIMTOLJ
 70
     1
  9
$DIMTZIN
 70
     0
  9
$DIMALTZ
 70
     0
  9
$DIMALTTZ
 70
     0
  9
$DIMUPT
 70
     0
  9
$DIMDEC
 70
     4
  9
$DIMTDEC
 70
     4
  9
$DIMALTU
 70
     2
  9
$DIMALTTD
 70
     2
  9
$DIMTXSTY
  7
Standard
  9
$DIMAUNIT
 70
     0
  9
$DIMADEC
 70
     0
  9
$DIMALTRND
 40
0.0
  9
$DIMAZIN
 70
     0
  9
$DIMDSEP
 70
     0
  9
$DIMATFIT
 70
     3
  9
$DIMFRAC
 70
     0
  9
$DIMLDRBLK
  1

  9
$DIMLUNIT
 70
     2
  9
$DIMLWD
 70
     0
  9
$DIMLWE
 70
     0
  9
$DIMTMOVE
 70
     0
  9
$LUNITS
 70
     2
  9
$LUPREC
 70
     4
  9
$SKETCHINC
 40
0.1
  9
$FILLETRAD
 40
0.0
  9
$AUNITS
 70
     0
  9
$AUPREC
 70
     0
  9
$MENU
  1
acad
  9
$ELEVATION
 40
0.0
  9
$PELEVATION
 40
0.0
  9
$THICKNESS
 40
0.0
  9
$LIMCHECK
 70
     0
  9
$CHAMFERA
 40
0.0
  9
$CHAMFERB
 40
0.0
  9
$CHAMFERC
 40
0.0
  9
$CHAMFERD
 40
0.0
  9
$SKPOLY
 70
     0
  9
$TDCREATE
 40
2453255.749338286
  9
$TDUCREATE
 40
2453255.374338286
  9
$TDUPDATE
 40
2453255.752566724
  9
$TDUUPDATE
 40
2453255.377566724
  9
$TDINDWG
 40
0.0032373032
  9
$TDUSRTIMER
 40
0.0032356829
  9
$USRTIMER
 70
     1
  9
$ANGBASE
 50
0.0
  9
$ANGDIR
 70
     0
  9
$PDMODE
 70
     1
  9
$PDSIZE
 40
-2.0
  9
$PLINEWID
 40
0.0
  9
$SPLFRAME
 70
     0
  9
$SPLINETYPE
 70
     6
  9
$SPLINESEGS
 70
     8
  9
$HANDSEED
  5
184
  9
$SURFTAB1
 70
     6
  9
$SURFTAB2
 70
     6
  9
$SURFTYPE
 70
     6
  9
$SURFU
 70
     6
  9
$SURFV
 70
     6
  9
$UCSBASE
  2

  9
$UCSNAME
  2

  9
$UCSORG
 10
0.0
 20
0.0
 30
0.0
  9
$UCSXDIR
 10
1.0
 20
0.0
 30
0.0
  9
$UCSYDIR
 10
0.0
 20
1.0
 30
0.0
  9
$UCSORTHOREF
  2

  9
$UCSORTHOVIEW
 70
     0
  9
$UCSORGTOP
 10
0.0
 20
0.0
 30
0.0
  9
$UCSORGBOTTOM
 10
0.0
 20
0.0
 30
0.0
  9
$UCSORGLEFT
 10
0.0
 20
0.0
 30
0.0
  9
$UCSORGRIGHT
 10
0.0
 20
0.0
 30
0.0
  9
$UCSORGFRONT
 10
0.0
 20
0.0
 30
0.0
  9
$UCSORGBACK
 10
0.0
 20
0.0
 30
0.0
  9
$PUCSBASE
  2

  9
$PUCSNAME
  2

  9
$PUCSORG
 10
0.0
 20
0.0
 30
0.0
  9
$PUCSXDIR
 10
1.0
 20
0.0
 30
0.0
  9
$PUCSYDIR
 10
0.0
 20
1.0
 30
0.0
  9
$PUCSORTHOREF
  2

  9
$PUCSORTHOVIEW
 70
     0
  9
$PUCSORGTOP
 10
0.0
 20
0.0
 30
0.0
  9
$PUCSORGBOTTOM
 10
0.0
 20
0.0
 30
0.0
  9
$PUCSORGLEFT
 10
0.0
 20
0.0
 30
0.0
  9
$PUCSORGRIGHT
 10
0.0
 20
0.0
 30
0.0
  9
$PUCSORGFRONT
 10
0.0
 20
0.0
 30
0.0
  9
$PUCSORGBACK
 10
0.0
 20
0.0
 30
0.0
  9
$USERI1
 70
     0
  9
$USERI2
 70
     0
  9
$USERI3
 70
     0
  9
$USERI4
 70
     0
  9
$USERI5
 70
     0
  9
$USERR1
 40
0.0
  9
$USERR2
 40
0.0
  9
$USERR3
 40
0.0
  9
$USERR4
 40
0.0
  9
$USERR5
 40
0.0
  9
$WORLDVIEW
 70
     1
  9
$SHADEDGE
 70
     3
  9
$SHADEDIF
 70
    70
  9
$TILEMODE
 70
     1
  9
$MAXACTVP
 70
    16
  9
$PINSBASE
 10
0.0
 20
0.0
 30
0.0
  9
$PLIMCHECK
 70
     0
  9
$PEXTMIN
 10
1.000000000000000E+20
 20
1.000000000000000E+20
 30
1.000000000000000E+20
  9
$PEXTMAX
 10
-1.000000000000000E+20
 20
-1.000000000000000E+20
 30
-1.000000000000000E+20
  9
$PLIMMIN
 10
0.0
 20
0.0
  9
$PLIMMAX
 10
12.0
 20
9.0
  9
$UNITMODE
 70
     0
  9
$VISRETAIN
 70
     0
  9
$PLINEGEN
 70
     1
  9
$PSLTSCALE
 70
     0
  9
$TREEDEPTH
 70
  3020
  9
$CMLSTYLE
  2
Standard
  9
$CMLJUST
 70
     0
  9
$CMLSCALE
 40
1.0
  9
$PROXYGRAPHICS
 70
     0
  9
$MEASUREMENT
 70
     1
  9
$CELWEIGHT
370
     0
  9
$ENDCAPS
280
     0
  9
$JOINSTYLE
280
     0
  9
$LWDISPLAY
290
     1
  9
$INSUNITS
 70
     4
  9
$HYPERLINKBASE
  1

  9
$STYLESHEET
  1

  9
$XEDIT
290
     1
  9
$CEPSNTYPE
380
     0
  9
$PSTYLEMODE
290
     1
  9
$FINGERPRINTGUID
  2

  9
$VERSIONGUID
  2
{D2595CAC-9598-4997-B75F-11D2A5656D0A}
  9
$EXTNAMES
290
     1
  9
$PSVPSCALE
 40
0.0
  9
$OLESTARTUP
290
     0
  0
ENDSEC
  0
SECTION
  2
CLASSES
  0
CLASS
  1
LWPOLYLINE
  2
AcDbPolyline
  3
AutoCAD 2000
 90
    32768
280
     0
281
     1
  0
CLASS
  1
IMAGE
  2
AcDbRasterImage
  3
ISM
 90
    32895
280
     0
281
     1
  0
CLASS
  1
OLE2FRAME
  2
AcDbOle2Frame
  3
AutoCAD 2000
 90
    32768
280
     0
281
     1
  0
CLASS
  1
HATCH
  2
AcDbHatch
  3
AutoCAD 2000
 90
    32768
280
     0
281
     1
  0
CLASS
  1
DICTIONARYVAR
  2
AcDbDictionaryVar
  3
AutoCAD 2000
 90
    32768
280
     0
281
     0
  0
CLASS
  1
RASTERVARIABLES
  2
AcDbRasterVariables
  3
ISM
 90
    32768
280
     0
281
     0
  0
CLASS
  1
IMAGEDEF
  2
AcDbRasterImageDef
  3
ISM
 90
    32768
280
     0
281
     0
  0
CLASS
  1
IMAGEDEF_REACTOR
  2
AcDbRasterImageDefReactor
  3
ISM
 90
    32769
280
     0
281
     0
  0
CLASS
  1
IDBUFFER
  2
AcDbIdBuffer
  3
AutoCAD 2000
 90
    32768
280
     0
281
     0
  0
CLASS
  1
SPATIAL_FILTER
  2
AcDbSpatialFilter
  3
AutoCAD 2000
 90
    32768
280
     0
281
     0
  0
CLASS
  1
XRECORD
  2
AcDbXrecord
  3
AutoCAD 2000
 90
    32768
280
     0
281
     0
  0
CLASS
  1
SORTENTSTABLE
  2
AcDbSortentsTable
  3
AutoCAD 2000
 90
    32768
280
     0
281
     0
  0
CLASS
  1
LAYER_INDEX
  2
AcDbLayerIndex
  3
AutoCAD 2000
 90
    32768
280
     0
281
     0
  0
CLASS
  1
SPATIAL_INDEX
  2
AcDbSpatialIndex
  3
AutoCAD 2000
 90
    32768
280
     0
281
     0
  0
CLASS
  1
OBJECT_PTR
  2
CAseDLPNTableRecord
  3
"ASE-LPNTableRecord"
 90
    32769
280
     0
281
     0
  0
CLASS
  1
LAYOUT
  2
AcDbLayout
  3
AutoCAD 2000
 90
        0
280
     0
281
     0
  0
CLASS
  1
PLOTSETTINGS
  2
AcDbPlotSettings
  3
AutoCAD 2000
 90
    32768
280
     0
281
     0
  0
CLASS
  1
ACDBDICTIONARYWDFLT
  2
AcDbDictionaryWithDefault
  3
AutoCAD 2000
 90
        0
280
     0
281
     0
  0
CLASS
  1
ACDBPLACEHOLDER
  2
AcDbPlaceHolder
  3
AutoCAD 2000
 90
        0
280
     0
281
     0
  0
ENDSEC
  0
SECTION
  2
TABLES
  0
TABLE
  2
VPORT
  5
7
330
0
100
AcDbSymbolTable
 70
     3
  0
VPORT
  5
183
330
7
100
AcDbSymbolTableRecord
100
AcDbViewportTableRecord
  2
*Active
 70
     0
 10
0.0
 20
0.0
 11
1.0
 21
1.0
 12
148.4564801331689
 22
-406.8471057533834
 13
0.0
 23
0.0
 14
1.0
 24
1.0
 15
0.0
 25
0.0
 16
0.0
 26
0.0
 36
1.0
 17
0.0
 27
0.0
 37
0.0
 40
8322.46472836751
 41
1.148477157360406
 42
50.0
 43
0.0
 44
0.0
 50
0.0
 51
0.0
 71
     0
 72
   100
 73
     1
 74
     1
 75
     0
 76
     0
 77
     0
 78
     0
281
     0
 65
     0
110
0.0
120
0.0
130
0.0
111
1.0
121
0.0
131
0.0
112
0.0
122
1.0
132
0.0
 79
     0
146
0.0
  0
ENDTAB
  0
TABLE
  2
LTYPE
  5
4
330
0
100
AcDbSymbolTable
 70
    11
  0
LTYPE
  5
11
330
4
100
AcDbSymbolTableRecord
100
AcDbLinetypeTableRecord
  2
ByBlock
 70
     0
  3

 72
    65
 73
     0
 40
0.0
  0
LTYPE
  5
12
330
4
100
AcDbSymbolTableRecord
100
AcDbLinetypeTableRecord
  2
ByLayer
 70
     0
  3

 72
    65
 73
     0
 40
0.0
  0
LTYPE
  5
13
330
4
100
AcDbSymbolTableRecord
100
AcDbLinetypeTableRecord
  2
Continuous
 70
     0
  3
Solid line
 72
    65
 73
     0
 40
0.0
  0
LTYPE
  5
35
330
4
100
AcDbSymbolTableRecord
100
AcDbLinetypeTableRecord
  2
STYLE_01
 70
     0
  3

 72
    65
 73
     2
 40
0.41664
 49
0.20828
 74
     0
 49
-0.20836
 74
     0
  0
LTYPE
  5
36
330
4
100
AcDbSymbolTableRecord
100
AcDbLinetypeTableRecord
  2
STYLE_02
 70
     0
  3

 72
    65
 73
     2
 40
0.6944250000000001
 49
0.48607
 74
     0
 49
-0.2083550000000001
 74
     0
  0
LTYPE
  5
37
330
4
100
AcDbSymbolTableRecord
100
AcDbLinetypeTableRecord
  2
STYLE_03
 70
     0
  3

 72
    65
 73
     2
 40
1.25
 49
1.041639999999999
 74
     0
 49
-0.2083599999999999
 74
     0
  0
LTYPE
  5
38
330
4
100
AcDbSymbolTableRecord
100
AcDbLinetypeTableRecord
  2
STYLE_04
 70
     0
  3

 72
    65
 73
     2
 40
1.527709999999999
 49
1.319424999999999
 74
     0
 49
-0.208285
 74
     0
  0
LTYPE
  5
39
330
4
100
AcDbSymbolTableRecord
100
AcDbLinetypeTableRecord
  2
STYLE_05
 70
     0
  3

 72
    65
 73
     2
 40
0.20828
 49
0.069425
 74
     0
 49
-0.138855
 74
     0
  0
LTYPE
  5
3A
330
4
100
AcDbSymbolTableRecord
100
AcDbLinetypeTableRecord
  2
STYLE_06
 70
     0
  3

 72
    65
 73
     4
 40
1.041639999999999
 49
0.625
 74
     0
 49
-0.20828
 74
     0
 49
0.06943
 74
     0
 49
-0.13893
 74
     0
  0
LTYPE
  5
3B
330
4
100
AcDbSymbolTableRecord
100
AcDbLinetypeTableRecord
  2
STYLE_07
 70
     0
  3

 72
    65
 73
     6
 40
1.875
 49
0.625
 74
     0
 49
-0.20828
 74
     0
 49
0.6250000000000001
 74
     0
 49
-0.2083599999999999
 74
     0
 49
0.06943
 74
     0
 49
-0.1389299999999999
 74
     0
  0
LTYPE
  5
3C
330
4
100
AcDbSymbolTableRecord
100
AcDbLinetypeTableRecord
  2
STYLE_08
 70
     0
  3

 72
    65
 73
     6
 40
1.25
 49
0.625
 74
     0
 49
-0.20828
 74
     0
 49
0.06943
 74
     0
 49
-0.13893
 74
     0
 49
0.0694299999999999
 74
     0
 49
-0.13893
 74
     0
  0
LTYPE
  5
3D
330
4
100
AcDbSymbolTableRecord
100
AcDbLinetypeTableRecord
  2
STYLE_09
 70
     0
  3

 72
    65
 73
     4
 40
5.0
 49
3.75
 74
     0
 49
-0.2777849999999998
 74
     0
 49
0.6944300000000004
 74
     0
 49
-0.2777849999999998
 74
     0
  0
LTYPE
  5
3E
330
4
100
AcDbSymbolTableRecord
100
AcDbLinetypeTableRecord
  2
STYLE_10
 70
     0
  3

 72
    65
 73
     6
 40
5.9375
 49
3.75
 74
     0
 49
-0.2777849999999998
 74
     0
 49
0.6944300000000004
 74
     0
 49
-0.2777849999999998
 74
     0
 49
0.625
 74
     0
 49
-0.3125
 74
     0
  0
ENDTAB
  0
TABLE
  2
LAYER
  5
2
330
0
100
AcDbSymbolTable
 70
     3
  0
LAYER
  5
14
330
2
100
AcDbSymbolTableRecord
100
AcDbLayerTableRecord
  2
0
 70
     0
 62
     7
  6
Continuous
370
    -3
390
1D
  0
LAYER
  5
3F
330
2
100
AcDbSymbolTableRecord
100
AcDbLayerTableRecord
  2
一般
 70
     0
 62
     7
  6
Continuous
370
     5
390
1F
  0
LAYER
  5
40
330
2
100
AcDbSymbolTableRecord
100
AcDbLayerTableRecord
  2
寸法
 70
     0
 62
     7
  6
Continuous
370
     5
390
1F
  0
ENDTAB
  0
TABLE
  2
STYLE
  5
3
330
0
100
AcDbSymbolTable
 70
     2
  0
STYLE
  5
17
330
3
100
AcDbSymbolTableRecord
100
AcDbTextStyleTableRecord
  2
Standard
 70
     0
 40
0.0
 41
1.0
 50
0.0
 71
     0
 42
0.0
  3
txt
  4
BIGFONT.SHX
  0
STYLE
  5
34
330
3
100
AcDbSymbolTableRecord
100
AcDbTextStyleTableRecord
  2
ＭＳ ゴシック
 70
     0
 40
84.66666666666666
 41
1.0
 50
0.0
 71
     0
 42
84.66666666666666
  3
ＭＳ ゴシック
  4

1001
ACAD
1000
ＭＳ ゴシック
1071
        0
  0
ENDTAB
  0
TABLE
  2
VIEW
  5
5
330
0
100
AcDbSymbolTable
 70
     0
  0
ENDTAB
  0
TABLE
  2
UCS
  5
6
330
0
100
AcDbSymbolTable
 70
     0
  0
ENDTAB
  0
TABLE
  2
APPID
  5
8
330
0
100
AcDbSymbolTable
 70
     1
  0
APPID
  5
16
330
8
100
AcDbSymbolTableRecord
100
AcDbRegAppTableRecord
  2
ACAD
 70
     0
  0
ENDTAB
  0
TABLE
  2
DIMSTYLE
  5
9
330
0
100
AcDbSymbolTable
 70
     1
100
AcDbDimStyleTable
 71
     0
  0
DIMSTYLE
105
18
330
9
100
AcDbSymbolTableRecord
100
AcDbDimStyleTableRecord
  2
Standard
 70
     0
340
17
  0
ENDTAB
  0
TABLE
  2
BLOCK_RECORD
  5
1
330
0
100
AcDbSymbolTable
 70
    17
  0
BLOCK_RECORD
  5
A
330
1
100
AcDbSymbolTableRecord
100
AcDbBlockTableRecord
  2
*MODEL_SPACE
340
20
  0
BLOCK_RECORD
  5
B
330
1
100
AcDbSymbolTableRecord
100
AcDbBlockTableRecord
  2
*PAPER_SPACE
340
21
  0
BLOCK_RECORD
  5
23
330
1
100
AcDbSymbolTableRecord
100
AcDbBlockTableRecord
  2
*U0
340
0
102
{BLKREFS
331
EF
102
}
  0
BLOCK_RECORD
  5
24
330
1
100
AcDbSymbolTableRecord
100
AcDbBlockTableRecord
  2
*U1
340
0
102
{BLKREFS
331
F7
102
}
  0
BLOCK_RECORD
  5
25
330
1
100
AcDbSymbolTableRecord
100
AcDbBlockTableRecord
  2
*U2
340
0
102
{BLKREFS
331
FF
102
}
  0
BLOCK_RECORD
  5
26
330
1
100
AcDbSymbolTableRecord
100
AcDbBlockTableRecord
  2
*U3
340
0
102
{BLKREFS
331
107
102
}
  0
BLOCK_RECORD
  5
27
330
1
100
AcDbSymbolTableRecord
100
AcDbBlockTableRecord
  2
*U4
340
0
102
{BLKREFS
331
10F
102
}
  0
BLOCK_RECORD
  5
28
330
1
100
AcDbSymbolTableRecord
100
AcDbBlockTableRecord
  2
*U5
340
0
102
{BLKREFS
331
117
102
}
  0
BLOCK_RECORD
  5
29
330
1
100
AcDbSymbolTableRecord
100
AcDbBlockTableRecord
  2
*U6
340
0
102
{BLKREFS
331
11F
102
}
  0
BLOCK_RECORD
  5
2A
330
1
100
AcDbSymbolTableRecord
100
AcDbBlockTableRecord
  2
*U7
340
0
102
{BLKREFS
331
127
102
}
  0
BLOCK_RECORD
  5
2B
330
1
100
AcDbSymbolTableRecord
100
AcDbBlockTableRecord
  2
*U8
340
0
102
{BLKREFS
331
12F
102
}
  0
BLOCK_RECORD
  5
2C
330
1
100
AcDbSymbolTableRecord
100
AcDbBlockTableRecord
  2
*U9
340
0
102
{BLKREFS
331
13A
102
}
  0
BLOCK_RECORD
  5
2D
330
1
100
AcDbSymbolTableRecord
100
AcDbBlockTableRecord
  2
*U10
340
0
102
{BLKREFS
331
143
102
}
  0
BLOCK_RECORD
  5
2E
330
1
100
AcDbSymbolTableRecord
100
AcDbBlockTableRecord
  2
*U11
340
0
102
{BLKREFS
331
151
102
}
  0
BLOCK_RECORD
  5
2F
330
1
100
AcDbSymbolTableRecord
100
AcDbBlockTableRecord
  2
*U12
340
0
102
{BLKREFS
331
15B
102
}
  0
BLOCK_RECORD
  5
30
330
1
100
AcDbSymbolTableRecord
100
AcDbBlockTableRecord
  2
*U13
340
0
102
{BLKREFS
331
173
102
}
  0
BLOCK_RECORD
  5
31
330
1
100
AcDbSymbolTableRecord
100
AcDbBlockTableRecord
  2
*U14
340
0
102
{BLKREFS
331
174
102
}
  0
BLOCK_RECORD
  5
32
330
1
100
AcDbSymbolTableRecord
100
AcDbBlockTableRecord
  2
*U15
340
0
102
{BLKREFS
331
175
102
}
  0
BLOCK_RECORD
  5
33
330
1
100
AcDbSymbolTableRecord
100
AcDbBlockTableRecord
  2
*U16
340
0
102
{BLKREFS
331
176
102
}
  0
ENDTAB
  0
ENDSEC
  0
SECTION
  2
BLOCKS
  0
BLOCK
  5
D
330
A
100
AcDbEntity
  8
0
100
AcDbBlockBegin
  2
*MODEL_SPACE
 70
     0
 10
0.0
 20
0.0
 30
0.0
  3
*MODEL_SPACE
  1

  0
ENDBLK
  5
E
330
A
100
AcDbEntity
  8
0
100
AcDbBlockEnd
  0
BLOCK
  5
F
330
B
100
AcDbEntity
 67
     1
  8
0
100
AcDbBlockBegin
  2
*PAPER_SPACE
 70
     0
 10
0.0
 20
0.0
 30
0.0
  3
*PAPER_SPACE
  1

  0
ENDBLK
  5
10
330
B
100
AcDbEntity
 67
     1
  8
0
100
AcDbBlockEnd
  0
BLOCK
  5
41
330
23
100
AcDbEntity
  8
寸法
100
AcDbBlockBegin
  2
*U0
 70
     1
 10
0.0
 20
0.0
 30
0.0
  3
*U0
  1

  0
MTEXT
  5
42
330
23
100
AcDbEntity
  8
寸法
 62
     7
100
AcDbMText
 10
-2423.5
 20
-1680.333333333333
 30
0.0
 40
67.73333333333333
 41
0.0
 71
     1
 72
     1
  1
400
  7
ＭＳ ゴシック
 73
     1
 44
1.0
  0
ENDBLK
  5
43
330
23
100
AcDbEntity
  8
寸法
100
AcDbBlockEnd
  0
BLOCK
  5
44
330
24
100
AcDbEntity
  8
寸法
100
AcDbBlockBegin
  2
*U1
 70
     1
 10
0.0
 20
0.0
 30
0.0
  3
*U1
  1

  0
MTEXT
  5
45
330
24
100
AcDbEntity
  8
寸法
 62
     7
100
AcDbMText
 10
-1768.499999999999
 20
-1680.333333333333
 30
0.0
 40
67.73333333333333
 41
0.0
 71
     1
 72
     1
  1
910
  7
ＭＳ ゴシック
 73
     1
 44
1.0
  0
ENDBLK
  5
46
330
24
100
AcDbEntity
  8
寸法
100
AcDbBlockEnd
  0
BLOCK
  5
47
330
25
100
AcDbEntity
  8
寸法
100
AcDbBlockBegin
  2
*U2
 70
     1
 10
0.0
 20
0.0
 30
0.0
  3
*U2
  1

  0
MTEXT
  5
48
330
25
100
AcDbEntity
  8
寸法
 62
     7
100
AcDbMText
 10
-858.5
 20
-1680.333333333333
 30
0.0
 40
67.73333333333333
 41
0.0
 71
     1
 72
     1
  1
910
  7
ＭＳ ゴシック
 73
     1
 44
1.0
  0
ENDBLK
  5
49
330
25
100
AcDbEntity
  8
寸法
100
AcDbBlockEnd
  0
BLOCK
  5
4A
330
26
100
AcDbEntity
  8
寸法
100
AcDbBlockBegin
  2
*U3
 70
     1
 10
0.0
 20
0.0
 30
0.0
  3
*U3
  1

  0
MTEXT
  5
4B
330
26
100
AcDbEntity
  8
寸法
 62
     7
100
AcDbMText
 10
-203.5
 20
-1680.333333333333
 30
0.0
 40
67.73333333333333
 41
0.0
 71
     1
 72
     1
  1
400
  7
ＭＳ ゴシック
 73
     1
 44
1.0
  0
ENDBLK
  5
4C
330
26
100
AcDbEntity
  8
寸法
100
AcDbBlockEnd
  0
BLOCK
  5
4D
330
27
100
AcDbEntity
  8
寸法
100
AcDbBlockBegin
  2
*U4
 70
     1
 10
0.0
 20
0.0
 30
0.0
  3
*U4
  1

  0
MTEXT
  5
4E
330
27
100
AcDbEntity
  8
寸法
 62
     7
100
AcDbMText
 10
-2423.5
 20
1916.466666666666
 30
0.0
 40
67.73333333333333
 41
0.0
 71
     1
 72
     1
  1
400
  7
ＭＳ ゴシック
 73
     1
 44
1.0
  0
ENDBLK
  5
4F
330
27
100
AcDbEntity
  8
寸法
100
AcDbBlockEnd
  0
BLOCK
  5
50
330
28
100
AcDbEntity
  8
寸法
100
AcDbBlockBegin
  2
*U5
 70
     1
 10
0.0
 20
0.0
 30
0.0
  3
*U5
  1

  0
MTEXT
  5
51
330
28
100
AcDbEntity
  8
寸法
 62
     7
100
AcDbMText
 10
-1768.499999999999
 20
1916.466666666666
 30
0.0
 40
67.73333333333333
 41
0.0
 71
     1
 72
     1
  1
910
  7
ＭＳ ゴシック
 73
     1
 44
1.0
  0
ENDBLK
  5
52
330
28
100
AcDbEntity
  8
寸法
100
AcDbBlockEnd
  0
BLOCK
  5
53
330
29
100
AcDbEntity
  8
寸法
100
AcDbBlockBegin
  2
*U6
 70
     1
 10
0.0
 20
0.0
 30
0.0
  3
*U6
  1

  0
MTEXT
  5
54
330
29
100
AcDbEntity
  8
寸法
 62
     7
100
AcDbMText
 10
-858.5
 20
1916.466666666666
 30
0.0
 40
67.73333333333333
 41
0.0
 71
     1
 72
     1
  1
910
  7
ＭＳ ゴシック
 73
     1
 44
1.0
  0
ENDBLK
  5
55
330
29
100
AcDbEntity
  8
寸法
100
AcDbBlockEnd
  0
BLOCK
  5
56
330
2A
100
AcDbEntity
  8
寸法
100
AcDbBlockBegin
  2
*U7
 70
     1
 10
0.0
 20
0.0
 30
0.0
  3
*U7
  1

  0
MTEXT
  5
57
330
2A
100
AcDbEntity
  8
寸法
 62
     7
100
AcDbMText
 10
-203.5
 20
1916.466666666666
 30
0.0
 40
67.73333333333333
 41
0.0
 71
     1
 72
     1
  1
400
  7
ＭＳ ゴシック
 73
     1
 44
1.0
  0
ENDBLK
  5
58
330
2A
100
AcDbEntity
  8
寸法
100
AcDbBlockEnd
  0
BLOCK
  5
59
330
2B
100
AcDbEntity
  8
寸法
100
AcDbBlockBegin
  2
*U8
 70
     1
 10
0.0
 20
0.0
 30
0.0
  3
*U8
  1

  0
MTEXT
  5
5A
330
2B
100
AcDbEntity
  8
寸法
 62
     7
100
AcDbMText
 10
-2786.466666666666
 20
-14.66666666666665
 30
0.0
 40
67.73333333333333
 41
0.0
 71
     1
 72
     1
  1
3000
  7
ＭＳ ゴシック
 11
0.0
 21
1.0
 31
0.0
 73
     1
 44
1.0
  0
ENDBLK
  5
5B
330
2B
100
AcDbEntity
  8
寸法
100
AcDbBlockEnd
  0
BLOCK
  5
5C
330
2C
100
AcDbEntity
  8
寸法
100
AcDbBlockBegin
  2
*U9
 70
     1
 10
0.0
 20
0.0
 30
0.0
  3
*U9
  1

  0
MTEXT
  5
5D
330
2C
100
AcDbEntity
  8
寸法
 62
     7
100
AcDbMText
 10
-2467.0
 20
-1457.666666666667
 30
0.0
 40
67.73333333333333
 41
0.0
 71
     1
 72
     1
  1
150
  7
ＭＳ ゴシック
 73
     1
 44
1.0
  0
ENDBLK
  5
5E
330
2C
100
AcDbEntity
  8
寸法
100
AcDbBlockEnd
  0
BLOCK
  5
5F
330
2D
100
AcDbEntity
  8
寸法
100
AcDbBlockBegin
  2
*U10
 70
     1
 10
0.0
 20
0.0
 30
0.0
  3
*U10
  1

  0
MTEXT
  5
60
330
2D
100
AcDbEntity
  8
寸法
 62
     7
100
AcDbMText
 10
-130.0
 20
-1520.333333333333
 30
0.0
 40
67.73333333333333
 41
0.0
 71
     1
 72
     1
  1
150
  7
ＭＳ ゴシック
 73
     1
 44
1.0
  0
ENDBLK
  5
61
330
2D
100
AcDbEntity
  8
寸法
100
AcDbBlockEnd
  0
BLOCK
  5
62
330
2E
100
AcDbEntity
  8
寸法
100
AcDbBlockBegin
  2
*U11
 70
     1
 10
0.0
 20
0.0
 30
0.0
  3
*U11
  1

  0
MTEXT
  5
63
330
2E
100
AcDbEntity
  8
寸法
 62
     7
100
AcDbMText
 10
-1040.0
 20
-1587.666666666667
 30
0.0
 40
67.73333333333333
 41
0.0
 71
     1
 72
     1
  1
150
  7
ＭＳ ゴシック
 73
     1
 44
1.0
  0
ENDBLK
  5
64
330
2E
100
AcDbEntity
  8
寸法
100
AcDbBlockEnd
  0
BLOCK
  5
65
330
2F
100
AcDbEntity
  8
寸法
100
AcDbBlockBegin
  2
*U12
 70
     1
 10
0.0
 20
0.0
 30
0.0
  3
*U12
  1

  0
MTEXT
  5
66
330
2F
100
AcDbEntity
  8
寸法
 62
     7
100
AcDbMText
 10
-1334.666666666666
 20
-1865.333333333333
 30
0.0
 40
67.73333333333333
 41
0.0
 71
     1
 72
     1
  1
2620
  7
ＭＳ ゴシック
 73
     1
 44
1.0
  0
ENDBLK
  5
67
330
2F
100
AcDbEntity
  8
寸法
100
AcDbBlockEnd
  0
BLOCK
  5
68
330
30
100
AcDbEntity
  8
一般
100
AcDbBlockBegin
  2
*U13
 70
     1
 10
0.0
 20
0.0
 30
0.0
  3
*U13
  1

  0
SPLINE
  5
69
330
30
100
AcDbEntity
  8
一般
  6
Continuous
 62
     7
370
     9
100
AcDbSpline
210
0.0
220
0.0
230
1.0
 70
    11
 71
     2
 72
    60
 73
    57
 74
     0
 42
0.0000000001
 43
0.0000000001
 40
0.0
 40
0.0
 40
0.0
 40
1.0
 40
1.0
 40
2.0
 40
2.0
 40
3.0
 40
3.0
 40
4.0
 40
4.0
 40
5.0
 40
5.0
 40
6.0
 40
6.0
 40
7.0
 40
7.0
 40
8.0
 40
8.0
 40
9.0
 40
9.0
 40
10.0
 40
10.0
 40
11.0
 40
11.0
 40
12.0
 40
12.0
 40
13.0
 40
13.0
 40
14.0
 40
14.0
 40
15.0
 40
15.0
 40
16.0
 40
16.0
 40
17.0
 40
17.0
 40
18.0
 40
18.0
 40
19.0
 40
19.0
 40
20.0
 40
20.0
 40
21.0
 40
21.0
 40
22.0
 40
22.0
 40
23.0
 40
23.0
 40
24.0
 40
24.0
 40
25.0
 40
25.0
 40
26.0
 40
26.0
 40
27.0
 40
27.0
 40
28.0
 40
28.0
 40
28.0
 10
1140.86058135072
 20
-1593.003595817423
 30
0.0
 10
1142.618408465439
 20
-1594.102203352594
 30
0.0
 10
1140.86057181369
 20
-1595.200810887765
 30
0.0
 10
1139.981653487816
 20
-1595.75011465535
 30
0.0
 10
1139.102735161942
 20
-1596.299418422936
 30
0.0
 10
1139.102735161942
 20
-1608.658766604566
 30
0.0
 10
1139.102735161942
 20
-1621.018114786195
 30
0.0
 10
1168.107073295393
 20
-1621.018114786195
 30
0.0
 10
1197.111411428845
 20
-1621.018114786195
 30
0.0
 10
1197.111411428845
 20
-1625.696356492794
 30
0.0
 10
1197.111411428845
 20
-1630.374598199393
 30
0.0
 10
1168.693018845976
 20
-1630.374598199393
 30
0.0
 10
1140.274626263107
 20
-1630.374598199393
 30
0.0
 10
1149.649774146491
 20
-1649.50870476876
 30
0.0
 10
1157.267075841097
 20
-1656.411627181112
 30
0.0
 10
1161.0757266884
 20
-1659.863088387289
 30
0.0
 10
1164.884377535703
 20
-1663.314549593464
 30
0.0
 10
1179.533025837302
 20
-1677.047152723739
 30
0.0
 10
1190.666000835404
 20
-1682.540199340231
 30
0.0
 10
1196.232488334456
 20
-1685.286722648478
 30
0.0
 10
1201.798975833507
 20
-1688.033245956724
 30
0.0
 10
1198.576270536787
 20
-1692.427676097408
 30
0.0
 10
1195.353565240067
 20
-1696.822106238092
 30
0.0
 10
1172.501660156249
 20
-1683.638797934766
 30
0.0
 10
1166.056259099839
 20
-1677.596456491325
 30
0.0
 10
1162.833558571634
 20
-1674.575285769605
 30
0.0
 10
1159.610858043428
 20
-1671.554115047884
 30
0.0
 10
1148.477883045325
 20
-1661.117334523122
 30
0.0
 10
1143.790309103634
 20
-1652.328465301117
 30
0.0
 10
1141.446522132788
 20
-1647.934030690114
 30
0.0
 10
1139.102735161942
 20
-1643.539596079112
 30
0.0
 10
1139.102735161942
 20
-1678.969720380607
 30
0.0
 10
1139.102735161942
 20
-1714.399844682103
 30
0.0
 10
1134.112427295347
 20
-1714.399844682103
 30
0.0
 10
1129.122119428751
 20
-1714.399844682103
 30
0.0
 10
1129.122119428751
 20
-1679.793671561668
 30
0.0
 10
1129.122119428751
 20
-1645.187498441232
 30
0.0
 10
1111.153116186192
 20
-1677.047152723739
 30
0.0
 10
1093.486837331508
 20
-1687.483933248502
 30
0.0
 10
1084.653697904166
 20
-1692.702323510883
 30
0.0
 10
1075.820558476824
 20
-1697.920713773263
 30
0.0
 10
1072.304875636297
 20
-1694.075587400164
 30
0.0
 10
1068.789192795771
 20
-1690.230461027066
 30
0.0
 10
1108.809314909802
 20
-1669.192106165075
 30
0.0
 10
1118.379771618694
 20
-1649.783352182234
 30
0.0
 10
1123.16499997314
 20
-1640.078975190814
 30
0.0
 10
1127.950228327586
 20
-1630.374598199393
 30
0.0
 10
1101.006470307816
 20
-1630.374598199393
 30
0.0
 10
1074.062712288045
 20
-1630.374598199393
 30
0.0
 10
1074.062712288045
 20
-1625.696356492794
 30
0.0
 10
1074.062712288045
 20
-1621.018114786195
 30
0.0
 10
1101.592415858398
 20
-1621.018114786195
 30
0.0
 10
1129.122119428751
 20
-1621.018114786195
 30
0.0
 10
1129.122119428751
 20
-1606.461551534223
 30
0.0
 10
1129.122119428751
 20
-1591.904988282252
 30
0.0
 10
1134.991350389735
 20
-1592.454292049837
 30
0.0
 10
1140.86058135072
 20
-1593.003595817423
 30
0.0
  0
SPLINE
  5
6A
330
30
100
AcDbEntity
  8
一般
  6
Continuous
 62
     7
370
     9
100
AcDbSpline
210
0.0
220
0.0
230
1.0
 70
    11
 71
     2
 72
    58
 73
    55
 74
     0
 42
0.0000000001
 43
0.0000000001
 40
0.0
 40
0.0
 40
0.0
 40
1.0
 40
1.0
 40
2.0
 40
2.0
 40
3.0
 40
3.0
 40
4.0
 40
4.0
 40
5.0
 40
5.0
 40
6.0
 40
6.0
 40
7.0
 40
7.0
 40
8.0
 40
8.0
 40
9.0
 40
9.0
 40
10.0
 40
10.0
 40
11.0
 40
11.0
 40
12.0
 40
12.0
 40
13.0
 40
13.0
 40
14.0
 40
14.0
 40
15.0
 40
15.0
 40
16.0
 40
16.0
 40
17.0
 40
17.0
 40
18.0
 40
18.0
 40
19.0
 40
19.0
 40
20.0
 40
20.0
 40
21.0
 40
21.0
 40
22.0
 40
22.0
 40
23.0
 40
23.0
 40
24.0
 40
24.0
 40
25.0
 40
25.0
 40
26.0
 40
26.0
 40
27.0
 40
27.0
 40
27.0
 10
1307.87176185465
 20
-1590.257068038859
 30
0.0
 10
1310.801499144593
 20
-1590.806380747081
 30
0.0
 10
1308.750684949039
 20
-1592.179635695726
 30
0.0
 10
1307.725277851262
 20
-1592.866263170049
 30
0.0
 10
1306.699870753485
 20
-1593.552890644372
 30
0.0
 10
1306.699870753485
 20
-1602.341759866377
 30
0.0
 10
1306.699870753485
 20
-1611.130629088382
 30
0.0
 10
1323.399333250638
 20
-1611.130629088382
 30
0.0
 10
1340.098795747793
 20
-1611.130629088382
 30
0.0
 10
1340.098795747793
 20
-1615.222946180181
 30
0.0
 10
1340.098795747793
 20
-1619.31526327198
 30
0.0
 10
1323.399333250638
 20
-1619.31526327198
 30
0.0
 10
1306.699870753485
 20
-1619.31526327198
 30
0.0
 10
1306.699870753485
 20
-1627.032990594225
 30
0.0
 10
1306.699870753485
 20
-1634.75071791647
 30
0.0
 10
1328.08690719233
 20
-1634.75071791647
 30
0.0
 10
1349.473943631176
 20
-1634.75071791647
 30
0.0
 10
1349.473943631176
 20
-1638.843035008269
 30
0.0
 10
1349.473943631176
 20
-1642.935352100068
 30
0.0
 10
1301.719328805016
 20
-1642.935352100068
 30
0.0
 10
1253.964713978856
 20
-1642.935352100068
 30
0.0
 10
1253.964713978856
 20
-1638.843035008269
 30
0.0
 10
1253.964713978856
 20
-1634.75071791647
 30
0.0
 10
1275.966993722665
 20
-1634.75071791647
 30
0.0
 10
1297.969273466475
 20
-1634.75071791647
 30
0.0
 10
1297.969273466475
 20
-1627.032990594225
 30
0.0
 10
1297.969273466475
 20
-1619.31526327198
 30
0.0
 10
1287.392946264574
 20
-1619.31526327198
 30
0.0
 10
1276.816619062674
 20
-1619.31526327198
 30
0.0
 10
1271.543099570399
 20
-1627.48158703197
 30
0.0
 10
1268.613371817485
 20
-1630.29220129316
 30
0.0
 10
1267.148507941028
 20
-1631.697508423755
 30
0.0
 10
1265.683644064571
 20
-1633.10281555435
 30
0.0
 10
1261.874993217268
 20
-1630.630944129897
 30
0.0
 10
1258.066342369965
 20
-1628.159072705444
 30
0.0
 10
1272.129054658011
 20
-1613.327844158724
 30
0.0
 10
1275.351759954731
 20
-1603.989671169134
 30
0.0
 10
1276.963112603091
 20
-1599.320584674338
 30
0.0
 10
1278.574465251452
 20
-1594.651498179543
 30
0.0
 10
1283.262029656114
 20
-1595.750105714714
 30
0.0
 10
1287.949594060777
 20
-1596.848713249885
 30
0.0
 10
1290.87933135072
 20
-1597.947338666329
 30
0.0
 10
1288.535549148388
 20
-1599.0459462015
 30
0.0
 10
1287.363658047223
 20
-1599.595249969086
 30
0.0
 10
1286.191766946057
 20
-1600.144553736671
 30
0.0
 10
1283.847965669667
 20
-1605.637591412527
 30
0.0
 10
1282.383106561725
 20
-1608.384110250454
 30
0.0
 10
1281.650677007754
 20
-1609.757369669418
 30
0.0
 10
1280.918247453783
 20
-1611.130629088382
 30
0.0
 10
1289.443760460128
 20
-1611.130629088382
 30
0.0
 10
1297.969273466475
 20
-1611.130629088382
 30
0.0
 10
1297.969273466475
 20
-1600.144544796035
 30
0.0
 10
1297.969273466475
 20
-1589.158460503687
 30
0.0
 10
1302.920517660562
 20
-1589.707764271273
 30
0.0
 10
1307.87176185465
 20
-1590.257068038859
 30
0.0
  0
SPLINE
  5
6B
330
30
100
AcDbEntity
  8
一般
  6
Continuous
 62
     7
370
     9
100
AcDbSpline
210
0.0
220
0.0
230
1.0
 70
    11
 71
     2
 72
    44
 73
    41
 74
     0
 42
0.0000000001
 43
0.0000000001
 40
0.0
 40
0.0
 40
0.0
 40
1.0
 40
1.0
 40
2.0
 40
2.0
 40
3.0
 40
3.0
 40
4.0
 40
4.0
 40
5.0
 40
5.0
 40
6.0
 40
6.0
 40
7.0
 40
7.0
 40
8.0
 40
8.0
 40
9.0
 40
9.0
 40
10.0
 40
10.0
 40
11.0
 40
11.0
 40
12.0
 40
12.0
 40
13.0
 40
13.0
 40
14.0
 40
14.0
 40
15.0
 40
15.0
 40
16.0
 40
16.0
 40
17.0
 40
17.0
 40
18.0
 40
18.0
 40
19.0
 40
19.0
 40
20.0
 40
20.0
 40
20.0
 10
1249.863104661806
 20
-1647.934026219796
 30
0.0
 10
1249.863104661806
 20
-1668.532939855845
 30
0.0
 10
1249.863104661806
 20
-1689.131853491895
 30
0.0
 10
1255.136605080022
 20
-1697.371418946314
 30
0.0
 10
1259.238233471131
 20
-1699.019330249071
 30
0.0
 10
1261.289047666686
 20
-1699.843285900449
 30
0.0
 10
1263.33986186224
 20
-1700.667241551827
 30
0.0
 10
1273.300945759177
 20
-1704.512376865563
 30
0.0
 10
1280.625269909977
 20
-1704.512376865563
 30
0.0
 10
1284.287431985376
 20
-1704.512376865563
 30
0.0
 10
1287.949594060777
 20
-1704.512376865563
 30
0.0
 10
1319.883659947142
 20
-1704.512376865563
 30
0.0
 10
1351.817725833507
 20
-1704.512376865563
 30
0.0
 10
1350.352857188535
 20
-1709.190618572162
 30
0.0
 10
1348.887988543564
 20
-1713.868860278761
 30
0.0
 10
1318.41879130217
 20
-1713.868860278761
 30
0.0
 10
1287.949594060777
 20
-1713.868860278761
 30
0.0
 10
1269.78527245568
 20
-1713.868860278761
 30
0.0
 10
1264.511752963406
 20
-1710.838529874919
 30
0.0
 10
1261.874993217268
 20
-1709.323364672997
 30
0.0
 10
1259.238233471131
 20
-1707.808199471076
 30
0.0
 10
1253.378777965303
 20
-1705.061671692512
 30
0.0
 10
1249.570127118
 20
-1700.941888965302
 30
0.0
 10
1247.665801694349
 20
-1698.881997601697
 30
0.0
 10
1245.761476270697
 20
-1696.822106238092
 30
0.0
 10
1234.921469279371
 20
-1705.061671692512
 30
0.0
 10
1224.081462288046
 20
-1713.301237146932
 30
0.0
 10
1221.444702541908
 20
-1708.357503238661
 30
0.0
 10
1218.807942795771
 20
-1703.413769330392
 30
0.0
 10
1231.405786438845
 20
-1697.371418946314
 30
0.0
 10
1236.26914690682
 20
-1694.350243754276
 30
0.0
 10
1238.700827140808
 20
-1692.839656158256
 30
0.0
 10
1241.132507374796
 20
-1691.329068562237
 30
0.0
 10
1241.132507374796
 20
-1673.723864482815
 30
0.0
 10
1241.132507374796
 20
-1656.118660403394
 30
0.0
 10
1230.26320262909
 20
-1656.118660403394
 30
0.0
 10
1219.393897883383
 20
-1656.118660403394
 30
0.0
 10
1219.393897883383
 20
-1652.026343311595
 30
0.0
 10
1219.393897883383
 20
-1647.934026219796
 30
0.0
 10
1234.628501272595
 20
-1647.934026219796
 30
0.0
 10
1249.863104661806
 20
-1647.934026219796
 30
0.0
  0
LWPOLYLINE
  5
6C
330
30
100
AcDbEntity
  8
一般
  6
Continuous
 62
     7
370
     9
100
AcDbPolyline
 90
        8
 70
   129
 43
0.0
 10
1334.239340241964
 20
-1653.427063895651
 10
1334.239340241964
 20
-1696.272811411143
 10
1325.508742954954
 20
-1696.272811411143
 10
1325.508742954954
 20
-1689.626217048021
 10
1279.746356352617
 20
-1689.626217048021
 10
1279.746356352617
 20
-1698.470026481486
 10
1271.015759065607
 20
-1698.470026481486
 10
1271.015759065607
 20
-1653.427063895651
  0
LWPOLYLINE
  5
6D
330
30
100
AcDbEntity
  8
一般
  6
Continuous
 62
     7
370
     9
100
AcDbPolyline
 90
        4
 70
   129
 43
0.0
 10
1279.746356352617
 20
-1681.441582864424
 10
1325.508742954954
 20
-1681.441582864424
 10
1325.508742954954
 20
-1661.611698079249
 10
1279.746356352617
 20
-1661.611698079249
  0
SPLINE
  5
6E
330
30
100
AcDbEntity
  8
一般
  6
Continuous
 62
     7
370
     9
100
AcDbSpline
210
0.0
220
0.0
230
1.0
 70
    11
 71
     2
 72
    16
 73
    13
 74
     0
 42
0.0000000001
 43
0.0000000001
 40
0.0
 40
0.0
 40
0.0
 40
1.0
 40
1.0
 40
2.0
 40
2.0
 40
3.0
 40
3.0
 40
4.0
 40
4.0
 40
5.0
 40
5.0
 40
6.0
 40
6.0
 40
6.0
 10
1232.284719070263
 20
-1596.848713249885
 30
0.0
 10
1244.00363008192
 20
-1603.989671169134
 30
0.0
 10
1248.984172030388
 20
-1609.757374139737
 30
0.0
 10
1251.474443004622
 20
-1612.641225625038
 30
0.0
 10
1253.964713978856
 20
-1615.52507711034
 30
0.0
 10
1250.742008682136
 20
-1618.546243361742
 30
0.0
 10
1247.519303385416
 20
-1621.567409613144
 30
0.0
 10
1236.386328387314
 20
-1610.032021553211
 30
0.0
 10
1231.405786438845
 20
-1606.736198947698
 30
0.0
 10
1228.915515464611
 20
-1605.088287644941
 30
0.0
 10
1226.425244490377
 20
-1603.440376342185
 30
0.0
 10
1229.35498178032
 20
-1600.144544796035
 30
0.0
 10
1232.284719070263
 20
-1596.848713249885
 30
0.0
  0
SPLINE
  5
6F
330
30
100
AcDbEntity
  8
一般
  6
Continuous
 62
     7
370
     9
100
AcDbSpline
210
0.0
220
0.0
230
1.0
 70
    11
 71
     2
 72
    64
 73
    61
 74
     0
 42
0.0000000001
 43
0.0000000001
 40
0.0
 40
0.0
 40
0.0
 40
1.0
 40
1.0
 40
2.0
 40
2.0
 40
3.0
 40
3.0
 40
4.0
 40
4.0
 40
5.0
 40
5.0
 40
6.0
 40
6.0
 40
7.0
 40
7.0
 40
8.0
 40
8.0
 40
9.0
 40
9.0
 40
10.0
 40
10.0
 40
11.0
 40
11.0
 40
12.0
 40
12.0
 40
13.0
 40
13.0
 40
14.0
 40
14.0
 40
15.0
 40
15.0
 40
16.0
 40
16.0
 40
17.0
 40
17.0
 40
18.0
 40
18.0
 40
19.0
 40
19.0
 40
20.0
 40
20.0
 40
21.0
 40
21.0
 40
22.0
 40
22.0
 40
23.0
 40
23.0
 40
24.0
 40
24.0
 40
25.0
 40
25.0
 40
26.0
 40
26.0
 40
27.0
 40
27.0
 40
28.0
 40
28.0
 40
29.0
 40
29.0
 40
30.0
 40
30.0
 40
30.0
 10
1449.687274146491
 20
-1599.0459462015
 30
0.0
 10
1449.687274146491
 20
-1603.724187908099
 30
0.0
 10
1449.687274146491
 20
-1608.402429614699
 30
0.0
 10
1431.22996546056
 20
-1608.402429614699
 30
0.0
 10
1412.772656774628
 20
-1608.402429614699
 30
0.0
 10
1410.428874572296
 20
-1617.731447392485
 30
0.0
 10
1408.085092369965
 20
-1627.060465170273
 30
0.0
 10
1424.784554867119
 20
-1627.060465170273
 30
0.0
 10
1441.484017364273
 20
-1627.060465170273
 30
0.0
 10
1441.484017364273
 20
-1666.335724785503
 30
0.0
 10
1441.484017364273
 20
-1705.610984400734
 30
0.0
 10
1441.484017364273
 20
-1713.868860278761
 30
0.0
 10
1437.67536651697
 20
-1713.868860278761
 30
0.0
 10
1435.771041093319
 20
-1713.868860278761
 30
0.0
 10
1433.866715669667
 20
-1713.868860278761
 30
0.0
 10
1430.058074359394
 20
-1713.868860278761
 30
0.0
 10
1426.24943304912
 20
-1713.868860278761
 30
0.0
 10
1425.077532410925
 20
-1709.190618572162
 30
0.0
 10
1423.90563177273
 20
-1704.512376865563
 30
0.0
 10
1427.714282620033
 20
-1704.512376865563
 30
0.0
 10
1431.522933467336
 20
-1704.512376865563
 30
0.0
 10
1432.753420077263
 20
-1704.512376865563
 30
0.0
 10
1432.753420077263
 20
-1703.688416743866
 30
0.0
 10
1432.753420077263
 20
-1703.276436683018
 30
0.0
 10
1432.753420077263
 20
-1702.86445662217
 30
0.0
 10
1432.753420077263
 20
-1669.05477798802
 30
0.0
 10
1432.753420077263
 20
-1635.24509935387
 30
0.0
 10
1426.864666817054
 20
-1635.24509935387
 30
0.0
 10
1420.975913556846
 20
-1635.24509935387
 30
0.0
 10
1420.975913556846
 20
-1672.075953180059
 30
0.0
 10
1420.975913556846
 20
-1708.906807006247
 30
0.0
 10
1416.610614913341
 20
-1708.906807006247
 30
0.0
 10
1412.245316269836
 20
-1708.906807006247
 30
0.0
 10
1412.245316269836
 20
-1672.075953180059
 30
0.0
 10
1412.245316269836
 20
-1635.24509935387
 30
0.0
 10
1407.235476566987
 20
-1635.24509935387
 30
0.0
 10
1402.225636864137
 20
-1635.24509935387
 30
0.0
 10
1402.225636864137
 20
-1672.625256947644
 30
0.0
 10
1402.225636864137
 20
-1710.005414541418
 30
0.0
 10
1397.860338220632
 20
-1710.005414541418
 30
0.0
 10
1393.495039577127
 20
-1710.005414541418
 30
0.0
 10
1393.495039577127
 20
-1672.625256947644
 30
0.0
 10
1393.495039577127
 20
-1635.24509935387
 30
0.0
 10
1388.485199874278
 20
-1635.24509935387
 30
0.0
 10
1383.475360171429
 20
-1635.24509935387
 30
0.0
 10
1383.475360171429
 20
-1673.723864482815
 30
0.0
 10
1383.475360171429
 20
-1712.20262961176
 30
0.0
 10
1379.110061527924
 20
-1712.20262961176
 30
0.0
 10
1374.744762884419
 20
-1712.20262961176
 30
0.0
 10
1374.744762884419
 20
-1669.631547391016
 30
0.0
 10
1374.744762884419
 20
-1627.060465170273
 30
0.0
 10
1387.313308773113
 20
-1627.060465170273
 30
0.0
 10
1399.881854661806
 20
-1627.060465170273
 30
0.0
 10
1401.639691313555
 20
-1617.731447392485
 30
0.0
 10
1403.397527965303
 20
-1608.402429614699
 30
0.0
 10
1385.81914237376
 20
-1608.402429614699
 30
0.0
 10
1368.240756782218
 20
-1608.402429614699
 30
0.0
 10
1368.240756782218
 20
-1603.724187908099
 30
0.0
 10
1368.240756782218
 20
-1599.0459462015
 30
0.0
 10
1408.964015464355
 20
-1599.0459462015
 30
0.0
 10
1449.687274146491
 20
-1599.0459462015
 30
0.0
  0
SPLINE
  5
70
330
30
100
AcDbEntity
  8
一般
  6
Continuous
 62
     7
370
     9
100
AcDbSpline
210
0.0
220
0.0
230
1.0
 70
    11
 71
     2
 72
    44
 73
    41
 74
     0
 42
0.0000000001
 43
0.0000000001
 40
0.0
 40
0.0
 40
0.0
 40
1.0
 40
1.0
 40
2.0
 40
2.0
 40
3.0
 40
3.0
 40
4.0
 40
4.0
 40
5.0
 40
5.0
 40
6.0
 40
6.0
 40
7.0
 40
7.0
 40
8.0
 40
8.0
 40
9.0
 40
9.0
 40
10.0
 40
10.0
 40
11.0
 40
11.0
 40
12.0
 40
12.0
 40
13.0
 40
13.0
 40
14.0
 40
14.0
 40
15.0
 40
15.0
 40
16.0
 40
16.0
 40
17.0
 40
17.0
 40
18.0
 40
18.0
 40
19.0
 40
19.0
 40
20.0
 40
20.0
 40
20.0
 10
1487.187827531908
 20
-1594.651498179543
 30
0.0
 10
1488.945654646627
 20
-1595.750105714714
 30
0.0
 10
1487.187817994878
 20
-1596.848722190522
 30
0.0
 10
1486.308899669004
 20
-1597.398030428426
 30
0.0
 10
1485.42998134313
 20
-1597.947338666329
 30
0.0
 10
1485.42998134313
 20
-1611.679941796604
 30
0.0
 10
1485.42998134313
 20
-1625.412544926879
 30
0.0
 10
1494.219174138901
 20
-1625.412544926879
 30
0.0
 10
1503.008366934673
 20
-1625.412544926879
 30
0.0
 10
1503.008366934673
 20
-1630.090786633479
 30
0.0
 10
1503.008366934673
 20
-1634.769028340078
 30
0.0
 10
1494.219174138901
 20
-1634.769028340078
 30
0.0
 10
1485.42998134313
 20
-1634.769028340078
 30
0.0
 10
1485.42998134313
 20
-1669.915350016295
 30
0.0
 10
1485.42998134313
 20
-1705.061671692512
 30
0.0
 10
1485.42998134313
 20
-1713.868860278761
 30
0.0
 10
1481.621330495827
 20
-1713.868860278761
 30
0.0
 10
1479.717005072175
 20
-1713.868860278761
 30
0.0
 10
1477.812679648524
 20
-1713.868860278761
 30
0.0
 10
1470.78133304153
 20
-1713.868860278761
 30
0.0
 10
1463.749986434537
 20
-1713.868860278761
 30
0.0
 10
1462.578085796342
 20
-1709.190618572162
 30
0.0
 10
1461.406185158147
 20
-1704.512376865563
 30
0.0
 10
1468.144573295393
 20
-1704.512376865563
 30
0.0
 10
1474.88296143264
 20
-1704.512376865563
 30
0.0
 10
1476.69938405612
 20
-1704.512376865563
 30
0.0
 10
1476.69938405612
 20
-1703.413760389755
 30
0.0
 10
1476.69938405612
 20
-1702.864452151851
 30
0.0
 10
1476.69938405612
 20
-1702.315143913948
 30
0.0
 10
1476.69938405612
 20
-1668.542086127013
 30
0.0
 10
1476.69938405612
 20
-1634.769028340078
 30
0.0
 10
1461.142514905751
 20
-1634.769028340078
 30
0.0
 10
1445.585645755382
 20
-1634.769028340078
 30
0.0
 10
1445.585645755382
 20
-1630.090786633479
 30
0.0
 10
1445.585645755382
 20
-1625.412544926879
 30
0.0
 10
1461.142514905751
 20
-1625.412544926879
 30
0.0
 10
1476.69938405612
 20
-1625.412544926879
 30
0.0
 10
1476.69938405612
 20
-1609.482717785626
 30
0.0
 10
1476.69938405612
 20
-1593.552890644372
 30
0.0
 10
1481.943605794014
 20
-1594.102194411957
 30
0.0
 10
1487.187827531908
 20
-1594.651498179543
 30
0.0
  0
SPLINE
  5
71
330
30
100
AcDbEntity
  8
一般
  6
Continuous
 62
     7
370
     9
100
AcDbSpline
210
0.0
220
0.0
230
1.0
 70
    11
 71
     2
 72
    16
 73
    13
 74
     0
 42
0.0000000001
 43
0.0000000001
 40
0.0
 40
0.0
 40
0.0
 40
1.0
 40
1.0
 40
2.0
 40
2.0
 40
3.0
 40
3.0
 40
4.0
 40
4.0
 40
5.0
 40
5.0
 40
6.0
 40
6.0
 40
6.0
 10
1456.132684739931
 20
-1646.835418684625
 30
0.0
 10
1462.578076259312
 20
-1658.920101571507
 30
0.0
 10
1464.921867998673
 20
-1666.885019612452
 30
0.0
 10
1466.093763868354
 20
-1670.867478632925
 30
0.0
 10
1467.265659738034
 20
-1674.849937653397
 30
0.0
 10
1463.164031346925
 20
-1676.497848956154
 30
0.0
 10
1459.062402955816
 20
-1678.145760258911
 30
0.0
 10
1454.960793638766
 20
-1662.765236885242
 30
0.0
 10
1451.738088342045
 20
-1656.44823908769
 30
0.0
 10
1450.126735693686
 20
-1653.289740188914
 30
0.0
 10
1448.515383045325
 20
-1650.131241290138
 30
0.0
 10
1452.324033892628
 20
-1648.483329987382
 30
0.0
 10
1456.132684739931
 20
-1646.835418684625
 30
0.0
  0
SPLINE
  5
72
330
30
100
AcDbEntity
  8
一般
  6
Continuous
 62
     7
370
     9
100
AcDbSpline
210
0.0
220
0.0
230
1.0
 70
    11
 71
     2
 72
    72
 73
    69
 74
     0
 42
0.0000000001
 43
0.0000000001
 40
0.0
 40
0.0
 40
0.0
 40
1.0
 40
1.0
 40
2.0
 40
2.0
 40
3.0
 40
3.0
 40
4.0
 40
4.0
 40
5.0
 40
5.0
 40
6.0
 40
6.0
 40
7.0
 40
7.0
 40
8.0
 40
8.0
 40
9.0
 40
9.0
 40
10.0
 40
10.0
 40
11.0
 40
11.0
 40
12.0
 40
12.0
 40
13.0
 40
13.0
 40
14.0
 40
14.0
 40
15.0
 40
15.0
 40
16.0
 40
16.0
 40
17.0
 40
17.0
 40
18.0
 40
18.0
 40
19.0
 40
19.0
 40
20.0
 40
20.0
 40
21.0
 40
21.0
 40
22.0
 40
22.0
 40
23.0
 40
23.0
 40
24.0
 40
24.0
 40
25.0
 40
25.0
 40
26.0
 40
26.0
 40
27.0
 40
27.0
 40
28.0
 40
28.0
 40
29.0
 40
29.0
 40
30.0
 40
30.0
 40
31.0
 40
31.0
 40
32.0
 40
32.0
 40
33.0
 40
33.0
 40
34.0
 40
34.0
 40
34.0
 10
1592.088722451885
 20
-1594.651498179543
 30
0.0
 10
1593.846549566604
 20
-1595.750105714714
 30
0.0
 10
1592.088712914856
 20
-1596.848722190522
 30
0.0
 10
1591.209794588981
 20
-1597.398030428426
 30
0.0
 10
1590.330876263107
 20
-1597.947338666329
 30
0.0
 10
1590.330876263107
 20
-1611.679941796604
 30
0.0
 10
1590.330876263107
 20
-1625.412544926879
 30
0.0
 10
1615.819531556032
 20
-1625.412544926879
 30
0.0
 10
1641.308186848958
 20
-1625.412544926879
 30
0.0
 10
1640.722250835404
 20
-1656.173591674216
 30
0.0
 10
1639.550359734239
 20
-1669.906194804491
 30
0.0
 10
1638.964414183656
 20
-1676.772496369628
 30
0.0
 10
1638.378468633073
 20
-1683.638797934766
 30
0.0
 10
1636.620622444295
 20
-1703.413769330392
 30
0.0
 10
1634.276840241964
 20
-1705.610984400734
 30
0.0
 10
1633.104949140799
 20
-1706.709591935905
 30
0.0
 10
1631.933058039633
 20
-1707.808199471076
 30
0.0
 10
1627.245493634971
 20
-1713.319547570539
 30
0.0
 10
1621.679006135919
 20
-1713.319547570539
 30
0.0
 10
1618.895762386394
 20
-1713.319547570539
 30
0.0
 10
1616.112518636868
 20
-1713.319547570539
 30
0.0
 10
1607.90927139168
 20
-1713.319547570539
 30
0.0
 10
1599.706024146491
 20
-1713.319547570539
 30
0.0
 10
1597.948187494742
 20
-1708.64130586394
 30
0.0
 10
1596.190350842994
 20
-1703.963064157341
 30
0.0
 10
1606.151434739931
 20
-1703.963064157341
 30
0.0
 10
1616.112518636868
 20
-1703.963064157341
 30
0.0
 10
1621.971974142696
 20
-1703.963064157341
 30
0.0
 10
1623.436842787668
 20
-1702.589800268059
 30
0.0
 10
1624.169277110154
 20
-1701.903168323418
 30
0.0
 10
1624.90171143264
 20
-1701.216536378777
 30
0.0
 10
1627.831429648524
 20
-1698.470026481486
 30
0.0
 10
1628.417375199107
 20
-1690.779764794651
 30
0.0
 10
1628.710347974398
 20
-1686.934633951234
 30
0.0
 10
1629.00332074969
 20
-1683.089503107817
 30
0.0
 10
1631.347102952021
 20
-1655.715831084031
 30
0.0
 10
1631.347102952021
 20
-1645.242429712054
 30
0.0
 10
1631.347102952021
 20
-1640.005729026066
 30
0.0
 10
1631.347102952021
 20
-1634.769028340078
 30
0.0
 10
1610.838989607564
 20
-1634.769028340078
 30
0.0
 10
1590.330876263107
 20
-1634.769028340078
 30
0.0
 10
1587.401158047223
 20
-1664.284984163384
 30
0.0
 10
1581.834670548171
 20
-1673.137939868015
 30
0.0
 10
1579.051426798646
 20
-1677.56441772033
 30
0.0
 10
1576.26818304912
 20
-1681.990895572646
 30
0.0
 10
1562.791406774628
 20
-1703.963064157341
 30
0.0
 10
1547.849780929222
 20
-1708.632150652136
 30
0.0
 10
1540.37896800652
 20
-1710.966693899534
 30
0.0
 10
1532.908155083817
 20
-1713.301237146932
 30
0.0
 10
1529.978427330903
 20
-1708.906807006247
 30
0.0
 10
1527.048699577989
 20
-1704.512376865563
 30
0.0
 10
1556.345996181188
 20
-1696.272811411143
 30
0.0
 10
1562.498438767851
 20
-1686.38532571333
 30
0.0
 10
1565.574660061183
 20
-1681.441582864424
 30
0.0
 10
1568.650881354514
 20
-1676.497840015517
 30
0.0
 10
1578.123669345108
 20
-1660.98916155787
 30
0.0
 10
1579.236964937512
 20
-1647.879094948974
 30
0.0
 10
1579.793612733714
 20
-1641.324061644526
 30
0.0
 10
1580.350260529917
 20
-1634.769028340078
 30
0.0
 10
1557.508130901256
 20
-1634.769028340078
 30
0.0
 10
1534.666001272595
 20
-1634.769028340078
 30
0.0
 10
1534.666001272595
 20
-1630.090786633479
 30
0.0
 10
1534.666001272595
 20
-1625.412544926879
 30
0.0
 10
1557.508130901256
 20
-1625.412544926879
 30
0.0
 10
1580.350260529917
 20
-1625.412544926879
 30
0.0
 10
1580.350260529917
 20
-1609.482717785626
 30
0.0
 10
1580.350260529917
 20
-1593.552890644372
 30
0.0
 10
1586.219491490901
 20
-1594.102194411957
 30
0.0
 10
1592.088722451885
 20
-1594.651498179543
 30
0.0
  0
SPLINE
  5
73
330
30
100
AcDbEntity
  8
一般
  6
Continuous
 62
     7
370
     9
100
AcDbSpline
210
0.0
220
0.0
230
1.0
 70
    11
 71
     2
 72
    40
 73
    37
 74
     0
 42
0.0000000001
 43
0.0000000001
 40
0.0
 40
0.0
 40
0.0
 40
1.0
 40
1.0
 40
2.0
 40
2.0
 40
3.0
 40
3.0
 40
4.0
 40
4.0
 40
5.0
 40
5.0
 40
6.0
 40
6.0
 40
7.0
 40
7.0
 40
8.0
 40
8.0
 40
9.0
 40
9.0
 40
10.0
 40
10.0
 40
11.0
 40
11.0
 40
12.0
 40
12.0
 40
13.0
 40
13.0
 40
14.0
 40
14.0
 40
15.0
 40
15.0
 40
16.0
 40
16.0
 40
17.0
 40
17.0
 40
18.0
 40
18.0
 40
18.0
 10
1740.93558135072
 20
-1669.356899977542
 30
0.0
 10
1742.693408465439
 20
-1670.455507512713
 30
0.0
 10
1740.93557181369
 20
-1671.554115047884
 30
0.0
 10
1740.056653487816
 20
-1672.10341881547
 30
0.0
 10
1739.177735161942
 20
-1672.652722583055
 30
0.0
 10
1739.177735161942
 20
-1676.223201542679
 30
0.0
 10
1739.177735161942
 20
-1679.793680502304
 30
0.0
 10
1761.736662701953
 20
-1679.793680502304
 30
0.0
 10
1784.295590241964
 20
-1679.793680502304
 30
0.0
 10
1784.295590241964
 20
-1683.885997594102
 30
0.0
 10
1784.295590241964
 20
-1687.978314685901
 30
0.0
 10
1761.736662701953
 20
-1687.978314685901
 30
0.0
 10
1739.177735161942
 20
-1687.978314685901
 30
0.0
 10
1739.177735161942
 20
-1695.970689421621
 30
0.0
 10
1739.177735161942
 20
-1703.963064157341
 30
0.0
 10
1769.353964396559
 20
-1703.963064157341
 30
0.0
 10
1799.530193631176
 20
-1703.963064157341
 30
0.0
 10
1799.530193631176
 20
-1708.055381249139
 30
0.0
 10
1799.530193631176
 20
-1712.147698340938
 30
0.0
 10
1735.076116307862
 20
-1712.147698340938
 30
0.0
 10
1670.622038984548
 20
-1712.147698340938
 30
0.0
 10
1670.622038984548
 20
-1708.055381249139
 30
0.0
 10
1670.622038984548
 20
-1703.963064157341
 30
0.0
 10
1700.53458842974
 20
-1703.963064157341
 30
0.0
 10
1730.447137874931
 20
-1703.963064157341
 30
0.0
 10
1730.447137874931
 20
-1695.970689421621
 30
0.0
 10
1730.447137874931
 20
-1687.978314685901
 30
0.0
 10
1707.565944573763
 20
-1687.978314685901
 30
0.0
 10
1684.684751272594
 20
-1687.978314685901
 30
0.0
 10
1684.684751272594
 20
-1683.885997594102
 30
0.0
 10
1684.684751272594
 20
-1679.793680502304
 30
0.0
 10
1707.565944573763
 20
-1679.793680502304
 30
0.0
 10
1730.447137874931
 20
-1679.793680502304
 30
0.0
 10
1730.447137874931
 20
-1674.025986472337
 30
0.0
 10
1730.447137874931
 20
-1668.258292442371
 30
0.0
 10
1735.691359612825
 20
-1668.807596209957
 30
0.0
 10
1740.93558135072
 20
-1669.356899977542
 30
0.0
  0
SPLINE
  5
74
330
30
100
AcDbEntity
  8
一般
  6
Continuous
 62
     7
370
     9
100
AcDbSpline
210
0.0
220
0.0
230
1.0
 70
    11
 71
     2
 72
    64
 73
    61
 74
     0
 42
0.0000000001
 43
0.0000000001
 40
0.0
 40
0.0
 40
0.0
 40
1.0
 40
1.0
 40
2.0
 40
2.0
 40
3.0
 40
3.0
 40
4.0
 40
4.0
 40
5.0
 40
5.0
 40
6.0
 40
6.0
 40
7.0
 40
7.0
 40
8.0
 40
8.0
 40
9.0
 40
9.0
 40
10.0
 40
10.0
 40
11.0
 40
11.0
 40
12.0
 40
12.0
 40
13.0
 40
13.0
 40
14.0
 40
14.0
 40
15.0
 40
15.0
 40
16.0
 40
16.0
 40
17.0
 40
17.0
 40
18.0
 40
18.0
 40
19.0
 40
19.0
 40
20.0
 40
20.0
 40
21.0
 40
21.0
 40
22.0
 40
22.0
 40
23.0
 40
23.0
 40
24.0
 40
24.0
 40
25.0
 40
25.0
 40
26.0
 40
26.0
 40
27.0
 40
27.0
 40
28.0
 40
28.0
 40
29.0
 40
29.0
 40
30.0
 40
30.0
 40
30.0
 10
1772.576660156249
 20
-1590.257068038859
 30
0.0
 10
1774.334506345027
 20
-1591.35567557403
 30
0.0
 10
1772.576669693279
 20
-1592.454283109201
 30
0.0
 10
1771.697751367405
 20
-1593.003586876786
 30
0.0
 10
1770.81883304153
 20
-1593.552890644372
 30
0.0
 10
1770.81883304153
 20
-1599.320584674338
 30
0.0
 10
1770.81883304153
 20
-1605.088278704305
 30
0.0
 10
1784.002622235188
 20
-1605.088278704305
 30
0.0
 10
1797.186411428845
 20
-1605.088278704305
 30
0.0
 10
1797.186411428845
 20
-1609.180595796103
 30
0.0
 10
1797.186411428845
 20
-1613.272912887902
 30
0.0
 10
1792.791815030959
 20
-1613.272912887902
 30
0.0
 10
1788.397218633073
 20
-1613.272912887902
 30
0.0
 10
1784.295590241964
 20
-1621.265296564258
 30
0.0
 10
1780.193961850855
 20
-1629.257680240615
 30
0.0
 10
1791.619914392764
 20
-1629.257680240615
 30
0.0
 10
1803.045866934672
 20
-1629.257680240615
 30
0.0
 10
1803.045866934672
 20
-1633.349997332413
 30
0.0
 10
1803.045866934672
 20
-1637.442314424212
 30
0.0
 10
1786.932349988101
 20
-1637.442314424212
 30
0.0
 10
1770.81883304153
 20
-1637.442314424212
 30
0.0
 10
1770.81883304153
 20
-1642.688170322004
 30
0.0
 10
1770.81883304153
 20
-1647.934026219796
 30
0.0
 10
1784.881535792547
 20
-1647.934026219796
 30
0.0
 10
1798.944238543564
 20
-1647.934026219796
 30
0.0
 10
1798.944238543564
 20
-1652.026343311595
 30
0.0
 10
1798.944238543564
 20
-1656.118660403394
 30
0.0
 10
1784.881535792547
 20
-1656.118660403394
 30
0.0
 10
1770.81883304153
 20
-1656.118660403394
 30
0.0
 10
1770.81883304153
 20
-1665.209642674285
 30
0.0
 10
1770.81883304153
 20
-1674.300624945175
 30
0.0
 10
1766.453534398025
 20
-1674.300624945175
 30
0.0
 10
1762.08823575452
 20
-1674.300624945175
 30
0.0
 10
1762.08823575452
 20
-1665.209642674285
 30
0.0
 10
1762.08823575452
 20
-1656.118660403394
 30
0.0
 10
1749.754071900871
 20
-1656.118660403394
 30
0.0
 10
1737.419908047223
 20
-1656.118660403394
 30
0.0
 10
1737.419908047223
 20
-1652.026343311595
 30
0.0
 10
1737.419908047223
 20
-1647.934026219796
 30
0.0
 10
1749.754071900871
 20
-1647.934026219796
 30
0.0
 10
1762.08823575452
 20
-1647.934026219796
 30
0.0
 10
1762.08823575452
 20
-1642.688170322004
 30
0.0
 10
1762.08823575452
 20
-1637.442314424212
 30
0.0
 10
1747.410280161511
 20
-1637.442314424212
 30
0.0
 10
1732.732324568502
 20
-1637.442314424212
 30
0.0
 10
1732.732324568502
 20
-1633.349997332413
 30
0.0
 10
1732.732324568502
 20
-1629.257680240615
 30
0.0
 10
1742.986386009245
 20
-1629.257680240615
 30
0.0
 10
1753.240447449988
 20
-1629.257680240615
 30
0.0
 10
1750.310719697074
 20
-1621.265296564258
 30
0.0
 10
1747.38099194416
 20
-1613.272912887902
 30
0.0
 10
1742.400449995691
 20
-1613.272912887902
 30
0.0
 10
1737.419908047223
 20
-1613.272912887902
 30
0.0
 10
1737.419908047223
 20
-1609.180595796103
 30
0.0
 10
1737.419908047223
 20
-1605.088278704305
 30
0.0
 10
1749.754071900871
 20
-1605.088278704305
 30
0.0
 10
1762.08823575452
 20
-1605.088278704305
 30
0.0
 10
1762.08823575452
 20
-1597.123369603996
 30
0.0
 10
1762.08823575452
 20
-1589.158460503687
 30
0.0
 10
1767.332447955385
 20
-1589.707764271273
 30
0.0
 10
1772.576660156249
 20
-1590.257068038859
 30
0.0
  0
LWPOLYLINE
  5
75
330
30
100
AcDbEntity
  8
一般
  6
Continuous
 62
     7
370
     9
100
AcDbPolyline
 90
        4
 70
   129
 43
0.0
 10
1761.443685158147
 20
-1629.257680240615
 10
1772.576660156249
 20
-1629.257680240615
 10
1780.193961850855
 20
-1613.272912887902
 10
1756.170184739931
 20
-1613.272912887902
  0
SPLINE
  5
76
330
30
100
AcDbEntity
  8
一般
  6
Continuous
 62
     7
370
     9
100
AcDbSpline
210
0.0
220
0.0
230
1.0
 70
    11
 71
     2
 72
    32
 73
    29
 74
     0
 42
0.0000000001
 43
0.0000000001
 40
0.0
 40
0.0
 40
0.0
 40
1.0
 40
1.0
 40
2.0
 40
2.0
 40
3.0
 40
3.0
 40
4.0
 40
4.0
 40
5.0
 40
5.0
 40
6.0
 40
6.0
 40
7.0
 40
7.0
 40
8.0
 40
8.0
 40
9.0
 40
9.0
 40
10.0
 40
10.0
 40
11.0
 40
11.0
 40
12.0
 40
12.0
 40
13.0
 40
13.0
 40
14.0
 40
14.0
 40
14.0
 10
1731.560433467336
 20
-1596.848713249885
 30
0.0
 10
1731.560433467336
 20
-1611.103163452971
 30
0.0
 10
1731.560433467336
 20
-1625.357613656057
 30
0.0
 10
1710.17340656552
 20
-1625.357613656057
 30
0.0
 10
1688.786379663703
 20
-1625.357613656057
 30
0.0
 10
1688.786379663703
 20
-1630.054165786264
 30
0.0
 10
1688.786379663703
 20
-1634.75071791647
 30
0.0
 10
1688.786379663703
 20
-1646.286105976403
 30
0.0
 10
1687.321511018732
 20
-1650.131241290138
 30
0.0
 10
1686.589076696246
 20
-1652.053808947006
 30
0.0
 10
1685.85664237376
 20
-1653.976376603873
 30
0.0
 10
1682.340969070263
 20
-1663.314549593464
 30
0.0
 10
1678.825286229737
 20
-1666.885028553089
 30
0.0
 10
1677.067444809474
 20
-1668.670268032901
 30
0.0
 10
1675.309603389211
 20
-1670.455507512713
 30
0.0
 10
1671.793930085714
 20
-1667.98363608826
 30
0.0
 10
1668.278256782218
 20
-1665.511764663807
 30
0.0
 10
1675.309603389211
 20
-1658.370806744558
 30
0.0
 10
1676.774472034183
 20
-1654.800327784934
 30
0.0
 10
1677.506906356668
 20
-1653.015088305122
 30
0.0
 10
1678.239340679154
 20
-1651.22984882531
 30
0.0
 10
1680.055782376693
 20
-1645.187498441232
 30
0.0
 10
1680.055782376693
 20
-1639.694460765376
 30
0.0
 10
1680.055782376693
 20
-1636.947941927449
 30
0.0
 10
1680.055782376693
 20
-1634.201423089521
 30
0.0
 10
1680.055782376693
 20
-1615.525068169703
 30
0.0
 10
1680.055782376693
 20
-1596.848713249885
 30
0.0
 10
1705.808107922015
 20
-1596.848713249885
 30
0.0
 10
1731.560433467336
 20
-1596.848713249885
 30
0.0
  0
LWPOLYLINE
  5
77
330
30
100
AcDbEntity
  8
一般
  6
Continuous
 62
     7
370
     9
100
AcDbPolyline
 90
        4
 70
   129
 43
0.0
 10
1688.786379663703
 20
-1617.17297947246
 10
1722.829836180326
 20
-1617.17297947246
 10
1722.829836180326
 20
-1605.033347433483
 10
1688.786379663703
 20
-1605.033347433483
  0
LWPOLYLINE
  5
78
330
30
100
AcDbEntity
  8
一般
  6
Continuous
 62
     7
370
     9
100
AcDbPolyline
 90
        6
 70
   129
 43
0.0
 10
1731.560433467336
 20
-1637.497245695034
 10
1731.560433467336
 20
-1666.555440928156
 10
1699.919354661806
 20
-1666.555440928156
 10
1699.919354661806
 20
-1672.103409874833
 10
1691.188757374796
 20
-1672.103409874833
 10
1691.188757374796
 20
-1637.497245695034
  0
LWPOLYLINE
  5
79
330
30
100
AcDbEntity
  8
一般
  6
Continuous
 62
     7
370
     9
100
AcDbPolyline
 90
        4
 70
   129
 43
0.0
 10
1699.919354661806
 20
-1658.370806744558
 10
1722.829836180326
 20
-1658.370806744558
 10
1722.829836180326
 20
-1645.681879878632
 10
1699.919354661806
 20
-1645.681879878632
  0
SPLINE
  5
7A
330
30
100
AcDbEntity
  8
一般
  6
Continuous
 62
     7
370
     9
100
AcDbSpline
210
0.0
220
0.0
230
1.0
 70
    11
 71
     2
 72
    16
 73
    13
 74
     0
 42
0.0000000001
 43
0.0000000001
 40
0.0
 40
0.0
 40
0.0
 40
1.0
 40
1.0
 40
2.0
 40
2.0
 40
3.0
 40
3.0
 40
4.0
 40
4.0
 40
5.0
 40
5.0
 40
6.0
 40
6.0
 40
6.0
 10
1854.039713978856
 20
-1601.243161271842
 30
0.0
 10
1868.102426266902
 20
-1607.834806482869
 30
0.0
 10
1875.133782410925
 20
-1613.05319674525
 30
0.0
 10
1878.649460482937
 20
-1615.66239187644
 30
0.0
 10
1882.165138554948
 20
-1618.271587007631
 30
0.0
 10
1878.942433258228
 20
-1622.391369734841
 30
0.0
 10
1875.719727961508
 20
-1626.51115246205
 30
0.0
 10
1862.828906774628
 20
-1616.074371937289
 30
0.0
 10
1855.211605080022
 20
-1612.778549331776
 30
0.0
 10
1851.402954232719
 20
-1611.130638029019
 30
0.0
 10
1847.594303385417
 20
-1609.482726726262
 30
0.0
 10
1850.817008682136
 20
-1605.362943999052
 30
0.0
 10
1854.039713978856
 20
-1601.243161271842
 30
0.0
  0
SPLINE
  5
7B
330
30
100
AcDbEntity
  8
一般
  6
Continuous
 62
     7
370
     9
100
AcDbSpline
210
0.0
220
0.0
230
1.0
 70
    11
 71
     2
 72
    16
 73
    13
 74
     0
 42
0.0000000001
 43
0.0000000001
 40
0.0
 40
0.0
 40
0.0
 40
1.0
 40
1.0
 40
2.0
 40
2.0
 40
3.0
 40
3.0
 40
4.0
 40
4.0
 40
5.0
 40
5.0
 40
6.0
 40
6.0
 40
6.0
 10
1838.805129663703
 20
-1631.454895310957
 30
0.0
 10
1852.281886864137
 20
-1637.497245695034
 30
0.0
 10
1859.899188558743
 20
-1642.99028337089
 30
0.0
 10
1863.707839406046
 20
-1645.736802208818
 30
0.0
 10
1867.516490253349
 20
-1648.483321046745
 30
0.0
 10
1864.293784956628
 20
-1652.603103773955
 30
0.0
 10
1861.071079659908
 20
-1656.722886501165
 30
0.0
 10
1847.008367371863
 20
-1646.835418684625
 30
0.0
 10
1839.97701122784
 20
-1643.539587138475
 30
0.0
 10
1836.461333155829
 20
-1641.8916713654
 30
0.0
 10
1832.945655083816
 20
-1640.243755592326
 30
0.0
 10
1835.87539237376
 20
-1635.849325451641
 30
0.0
 10
1838.805129663703
 20
-1631.454895310957
 30
0.0
  0
SPLINE
  5
7C
330
30
100
AcDbEntity
  8
一般
  6
Continuous
 62
     7
370
     9
100
AcDbSpline
210
0.0
220
0.0
230
1.0
 70
    11
 71
     2
 72
    28
 73
    25
 74
     0
 42
0.0000000001
 43
0.0000000001
 40
0.0
 40
0.0
 40
0.0
 40
1.0
 40
1.0
 40
2.0
 40
2.0
 40
3.0
 40
3.0
 40
4.0
 40
4.0
 40
5.0
 40
5.0
 40
6.0
 40
6.0
 40
7.0
 40
7.0
 40
8.0
 40
8.0
 40
9.0
 40
9.0
 40
10.0
 40
10.0
 40
11.0
 40
11.0
 40
12.0
 40
12.0
 40
12.0
 10
1941.345686848958
 20
-1642.99028337089
 30
0.0
 10
1929.04082074969
 20
-1659.469414279729
 30
0.0
 10
1924.93920189561
 20
-1663.314540652828
 30
0.0
 10
1922.88839246857
 20
-1665.237103839377
 30
0.0
 10
1920.83758304153
 20
-1667.159667025926
 30
0.0
 10
1892.712158465439
 20
-1693.526283632579
 30
0.0
 10
1872.789990671565
 20
-1699.019330249071
 30
0.0
 10
1862.828906774628
 20
-1701.765853557317
 30
0.0
 10
1852.867822877691
 20
-1704.512376865563
 30
0.0
 10
1851.695931776525
 20
-1708.906807006247
 30
0.0
 10
1850.817018219165
 20
-1707.808199471076
 30
0.0
 10
1850.377561440486
 20
-1707.25889570349
 30
0.0
 10
1849.938104661806
 20
-1706.709591935905
 30
0.0
 10
1846.715399365086
 20
-1701.216545319413
 30
0.0
 10
1843.492694068366
 20
-1695.723498702921
 30
0.0
 10
1884.50892075728
 20
-1688.033245956724
 30
0.0
 10
1898.571623508296
 20
-1674.849937653397
 30
0.0
 10
1905.602974883804
 20
-1668.258283501734
 30
0.0
 10
1912.634326259312
 20
-1661.666629350071
 30
0.0
 10
1924.93921143264
 20
-1650.131241290138
 30
0.0
 10
1929.919753381108
 20
-1642.440979603304
 30
0.0
 10
1932.410024355342
 20
-1638.595848759887
 30
0.0
 10
1934.900295329576
 20
-1634.75071791647
 30
0.0
 10
1938.122991089267
 20
-1638.87050064368
 30
0.0
 10
1941.345686848958
 20
-1642.99028337089
 30
0.0
  0
SPLINE
  5
7D
330
30
100
AcDbEntity
  8
一般
  6
Continuous
 62
     7
370
     9
100
AcDbSpline
210
0.0
220
0.0
230
1.0
 70
    11
 71
     2
 72
    16
 73
    13
 74
     0
 42
0.0000000001
 43
0.0000000001
 40
0.0
 40
0.0
 40
0.0
 40
1.0
 40
1.0
 40
2.0
 40
2.0
 40
3.0
 40
3.0
 40
4.0
 40
4.0
 40
5.0
 40
5.0
 40
6.0
 40
6.0
 40
6.0
 10
1905.602979652319
 20
-1602.891063633963
 30
0.0
 10
1914.978127535702
 20
-1610.032021553211
 30
0.0
 10
1919.079746389782
 20
-1614.701108048007
 30
0.0
 10
1921.130555816822
 20
-1617.035651295404
 30
0.0
 10
1923.181365243862
 20
-1619.370194542802
 30
0.0
 10
1919.958659947141
 20
-1622.116722321366
 30
0.0
 10
1916.735954650421
 20
-1624.863250099931
 30
0.0
 10
1908.532716942262
 20
-1615.52507711034
 30
0.0
 10
1904.138120544377
 20
-1611.679941796604
 30
0.0
 10
1901.940822345434
 20
-1609.757374139737
 30
0.0
 10
1899.743524146491
 20
-1607.834806482869
 30
0.0
 10
1902.673251899405
 20
-1605.362935058416
 30
0.0
 10
1905.602979652319
 20
-1602.891063633963
 30
0.0
  0
SPLINE
  5
7E
330
30
100
AcDbEntity
  8
一般
  6
Continuous
 62
     7
370
     9
100
AcDbSpline
210
0.0
220
0.0
230
1.0
 70
    11
 71
     2
 72
    16
 73
    13
 74
     0
 42
0.0000000001
 43
0.0000000001
 40
0.0
 40
0.0
 40
0.0
 40
1.0
 40
1.0
 40
2.0
 40
2.0
 40
3.0
 40
3.0
 40
4.0
 40
4.0
 40
5.0
 40
5.0
 40
6.0
 40
6.0
 40
6.0
 10
1919.665691940364
 20
-1593.003595817423
 30
0.0
 10
1929.04082074969
 20
-1599.595241028449
 30
0.0
 10
1933.142449140799
 20
-1604.264327523244
 30
0.0
 10
1935.193263336353
 20
-1606.598870770642
 30
0.0
 10
1937.244077531908
 20
-1608.93341401804
 30
0.0
 10
1934.021372235187
 20
-1611.679932855968
 30
0.0
 10
1930.798666938468
 20
-1614.426451693895
 30
0.0
 10
1922.595410156249
 20
-1605.088278704305
 30
0.0
 10
1918.200823295393
 20
-1601.517808685317
 30
0.0
 10
1916.003529864965
 20
-1599.732573675823
 30
0.0
 10
1913.806236434537
 20
-1597.947338666329
 30
0.0
 10
1916.735964187451
 20
-1595.475467241876
 30
0.0
 10
1919.665691940364
 20
-1593.003595817423
 30
0.0
  0
SPLINE
  5
7F
330
30
100
AcDbEntity
  8
一般
  6
Continuous
 62
     7
370
     9
100
AcDbSpline
210
0.0
220
0.0
230
1.0
 70
    11
 71
     2
 72
    46
 73
    43
 74
     0
 42
0.0000000001
 43
0.0000000001
 40
0.0
 40
0.0
 40
0.0
 40
1.0
 40
1.0
 40
2.0
 40
2.0
 40
3.0
 40
3.0
 40
4.0
 40
4.0
 40
5.0
 40
5.0
 40
6.0
 40
6.0
 40
7.0
 40
7.0
 40
8.0
 40
8.0
 40
9.0
 40
9.0
 40
10.0
 40
10.0
 40
11.0
 40
11.0
 40
12.0
 40
12.0
 40
13.0
 40
13.0
 40
14.0
 40
14.0
 40
15.0
 40
15.0
 40
16.0
 40
16.0
 40
17.0
 40
17.0
 40
18.0
 40
18.0
 40
19.0
 40
19.0
 40
20.0
 40
20.0
 40
21.0
 40
21.0
 40
21.0
 10
2019.293067368068
 20
-1620.468802077973
 30
0.0
 10
2021.636849570399
 20
-1621.018114786195
 30
0.0
 10
2020.171990462457
 20
-1622.116722321366
 30
0.0
 10
2019.439560908485
 20
-1622.666026088952
 30
0.0
 10
2018.707131354514
 20
-1623.215329856537
 30
0.0
 10
2022.515782201817
 20
-1635.025374270581
 30
0.0
 10
2026.32443304912
 20
-1646.835418684625
 30
0.0
 10
2053.277947449987
 20
-1641.067724654659
 30
0.0
 10
2080.231461850855
 20
-1635.300030624692
 30
0.0
 10
2084.040112698158
 20
-1638.04654946262
 30
0.0
 10
2087.84876354546
 20
-1640.793068300548
 30
0.0
 10
2090.192545747792
 20
-1642.99028337089
 30
0.0
 10
2088.434709096044
 20
-1643.264939725001
 30
0.0
 10
2087.55579077017
 20
-1643.402267902057
 30
0.0
 10
2086.676872444296
 20
-1643.539596079112
 30
0.0
 10
2073.200115243861
 20
-1663.314549593464
 30
0.0
 10
2066.168759099839
 20
-1670.730154926188
 30
0.0
 10
2062.653081027827
 20
-1674.437957592549
 30
0.0
 10
2059.137402955816
 20
-1678.145760258911
 30
0.0
 10
2055.328752108513
 20
-1675.399241420983
 30
0.0
 10
2051.52010126121
 20
-1672.652722583055
 30
0.0
 10
2066.754704650421
 20
-1657.272199209387
 30
0.0
 10
2070.563355497724
 20
-1650.955201411835
 30
0.0
 10
2072.467680921376
 20
-1647.796702513059
 30
0.0
 10
2074.372006345027
 20
-1644.638203614283
 30
0.0
 10
2051.520110798239
 20
-1649.581937522553
 30
0.0
 10
2028.668215251451
 20
-1654.525671430823
 30
0.0
 10
2038.043353597805
 20
-1683.08949416718
 30
0.0
 10
2047.41849194416
 20
-1711.653316903539
 30
0.0
 10
2043.023895546274
 20
-1713.02658079282
 30
0.0
 10
2038.629299148388
 20
-1714.399844682103
 30
0.0
 10
2029.547128808812
 20
-1685.561365591634
 30
0.0
 10
2020.464958469233
 20
-1656.722886501165
 30
0.0
 10
2002.88657287769
 20
-1660.5680218149
 30
0.0
 10
1985.308187286148
 20
-1664.413157128636
 30
0.0
 10
1984.136296184982
 20
-1660.293374401426
 30
0.0
 10
1982.964405083817
 20
-1656.173591674216
 30
0.0
 10
2000.249822668583
 20
-1652.603112714592
 30
0.0
 10
2017.535240253348
 20
-1649.032633754967
 30
0.0
 10
2012.847666311657
 20
-1635.574678038167
 30
0.0
 10
2008.160092369965
 20
-1622.116722321366
 30
0.0
 10
2013.726579869016
 20
-1621.29276219967
 30
0.0
 10
2019.293067368068
 20
-1620.468802077973
 30
0.0
  0
SPLINE
  5
80
330
30
100
AcDbEntity
  8
一般
  6
Continuous
 62
     7
370
     9
100
AcDbSpline
210
0.0
220
0.0
230
1.0
 70
    11
 71
     2
 72
    36
 73
    33
 74
     0
 42
0.0000000001
 43
0.0000000001
 40
0.0
 40
0.0
 40
0.0
 40
1.0
 40
1.0
 40
2.0
 40
2.0
 40
3.0
 40
3.0
 40
4.0
 40
4.0
 40
5.0
 40
5.0
 40
6.0
 40
6.0
 40
7.0
 40
7.0
 40
8.0
 40
8.0
 40
9.0
 40
9.0
 40
10.0
 40
10.0
 40
11.0
 40
11.0
 40
12.0
 40
12.0
 40
13.0
 40
13.0
 40
14.0
 40
14.0
 40
15.0
 40
15.0
 40
16.0
 40
16.0
 40
16.0
 10
2223.375119933892
 20
-1605.05165785709
 30
0.0
 10
2228.062684338554
 20
-1600.657227716406
 30
0.0
 10
2231.285389635274
 20
-1600.657227716406
 30
0.0
 10
2232.896742283634
 20
-1600.657227716406
 30
0.0
 10
2234.508094931994
 20
-1600.657227716406
 30
0.0
 10
2240.953505525434
 20
-1600.657227716406
 30
0.0
 10
2243.297287727766
 20
-1602.854442786748
 30
0.0
 10
2244.469178828932
 20
-1603.953050321919
 30
0.0
 10
2245.641069930097
 20
-1605.05165785709
 30
0.0
 10
2249.742698321206
 20
-1608.896793170825
 30
0.0
 10
2249.742698321206
 20
-1611.917968362864
 30
0.0
 10
2249.742698321206
 20
-1613.428555958884
 30
0.0
 10
2249.742698321206
 20
-1614.939143554903
 30
0.0
 10
2249.742698321206
 20
-1620.98149393898
 30
0.0
 10
2247.691884125651
 20
-1622.904061595848
 30
0.0
 10
2246.666477027875
 20
-1623.865345424282
 30
0.0
 10
2245.641069930097
 20
-1624.826629252716
 30
0.0
 10
2240.953505525434
 20
-1629.2210593934
 30
0.0
 10
2237.730800228714
 20
-1629.2210593934
 30
0.0
 10
2236.119447580354
 20
-1629.2210593934
 30
0.0
 10
2234.508094931994
 20
-1629.2210593934
 30
0.0
 10
2228.062684338554
 20
-1629.2210593934
 30
0.0
 10
2225.718902136223
 20
-1627.023844323058
 30
0.0
 10
2224.547011035057
 20
-1625.925236787887
 30
0.0
 10
2223.375119933892
 20
-1624.826629252716
 30
0.0
 10
2219.273491542783
 20
-1620.98149393898
 30
0.0
 10
2219.273491542783
 20
-1617.960318746942
 30
0.0
 10
2219.273491542783
 20
-1616.449731150922
 30
0.0
 10
2219.273491542783
 20
-1614.939143554903
 30
0.0
 10
2219.273491542783
 20
-1608.896793170825
 30
0.0
 10
2221.324305738337
 20
-1606.974225513958
 30
0.0
 10
2222.349712836114
 20
-1606.012941685524
 30
0.0
 10
2223.375119933892
 20
-1605.05165785709
 30
0.0
  0
SPLINE
  5
81
330
30
100
AcDbEntity
  8
一般
  6
Continuous
 62
     7
370
     9
100
AcDbSpline
210
0.0
220
0.0
230
1.0
 70
    11
 71
     2
 72
    36
 73
    33
 74
     0
 42
0.0000000001
 43
0.0000000001
 40
0.0
 40
0.0
 40
0.0
 40
1.0
 40
1.0
 40
2.0
 40
2.0
 40
3.0
 40
3.0
 40
4.0
 40
4.0
 40
5.0
 40
5.0
 40
6.0
 40
6.0
 40
7.0
 40
7.0
 40
8.0
 40
8.0
 40
9.0
 40
9.0
 40
10.0
 40
10.0
 40
11.0
 40
11.0
 40
12.0
 40
12.0
 40
13.0
 40
13.0
 40
14.0
 40
14.0
 40
15.0
 40
15.0
 40
16.0
 40
16.0
 40
16.0
 10
2227.476748325
 20
-1608.896793170825
 30
0.0
 10
2225.132947048611
 20
-1611.094008241167
 30
0.0
 10
2225.132947048611
 20
-1613.016575898035
 30
0.0
 10
2225.132947048611
 20
-1613.977859726469
 30
0.0
 10
2225.132947048611
 20
-1614.939143554903
 30
0.0
 10
2225.132947048611
 20
-1618.784278868639
 30
0.0
 10
2226.304847686806
 20
-1619.882886403809
 30
0.0
 10
2226.890798005904
 20
-1620.432190171395
 30
0.0
 10
2227.476748325
 20
-1620.98149393898
 30
0.0
 10
2230.406466540885
 20
-1623.728021717544
 30
0.0
 10
2232.45728073644
 20
-1623.728021717544
 30
0.0
 10
2233.482687834217
 20
-1623.728021717544
 30
0.0
 10
2234.508094931994
 20
-1623.728021717544
 30
0.0
 10
2238.609723323103
 20
-1623.728021717544
 30
0.0
 10
2240.074582431046
 20
-1622.354757828262
 30
0.0
 10
2240.807011985017
 20
-1621.668125883621
 30
0.0
 10
2241.539441538988
 20
-1620.98149393898
 30
0.0
 10
2243.883223741319
 20
-1618.784278868639
 30
0.0
 10
2243.883223741319
 20
-1616.86171121177
 30
0.0
 10
2243.883223741319
 20
-1615.900427383337
 30
0.0
 10
2243.883223741319
 20
-1614.939143554903
 30
0.0
 10
2243.883223741319
 20
-1611.094008241167
 30
0.0
 10
2242.711332640154
 20
-1609.995400705996
 30
0.0
 10
2242.125387089571
 20
-1609.446096938411
 30
0.0
 10
2241.539441538988
 20
-1608.896793170825
 30
0.0
 10
2238.609723323103
 20
-1606.150283273534
 30
0.0
 10
2236.558909127548
 20
-1606.150283273534
 30
0.0
 10
2235.533502029772
 20
-1606.150283273534
 30
0.0
 10
2234.508094931994
 20
-1606.150283273534
 30
0.0
 10
2230.406466540885
 20
-1606.150283273534
 30
0.0
 10
2228.941607432943
 20
-1607.52353822218
 30
0.0
 10
2228.209177878971
 20
-1608.210165696502
 30
0.0
 10
2227.476748325
 20
-1608.896793170825
 30
0.0
  0
SPLINE
  5
82
330
30
100
AcDbEntity
  8
一般
  6
Continuous
 62
     7
370
     9
100
AcDbSpline
210
0.0
220
0.0
230
1.0
 70
    11
 71
     2
 72
    20
 73
    17
 74
     0
 42
0.0000000001
 43
0.0000000001
 40
0.0
 40
0.0
 40
0.0
 40
1.0
 40
1.0
 40
2.0
 40
2.0
 40
3.0
 40
3.0
 40
4.0
 40
4.0
 40
5.0
 40
5.0
 40
6.0
 40
6.0
 40
7.0
 40
7.0
 40
8.0
 40
8.0
 40
8.0
 10
2170.483708469233
 20
-1626.51115246205
 30
0.0
 10
2172.827490671564
 20
-1627.609759997222
 30
0.0
 10
2170.77668601304
 20
-1628.433720118918
 30
0.0
 10
2169.751283683777
 20
-1628.845700179767
 30
0.0
 10
2168.725881354514
 20
-1629.257680240615
 30
0.0
 10
2156.420996181187
 20
-1669.356899977542
 30
0.0
 10
2144.702075632503
 20
-1681.716239218535
 30
0.0
 10
2138.84261535816
 20
-1687.895908839031
 30
0.0
 10
2132.983155083816
 20
-1694.075578459528
 30
0.0
 10
2128.295590679154
 20
-1691.3290596216
 30
0.0
 10
2123.608026274492
 20
-1688.582540783672
 30
0.0
 10
2149.389649574194
 20
-1661.666629350071
 30
0.0
 10
2154.077223515886
 20
-1642.166323249193
 30
0.0
 10
2156.421010486732
 20
-1632.416170198754
 30
0.0
 10
2158.764797457578
 20
-1622.666017148315
 30
0.0
 10
2164.624252963406
 20
-1624.588584805183
 30
0.0
 10
2170.483708469233
 20
-1626.51115246205
 30
0.0
  0
SPLINE
  5
83
330
30
100
AcDbEntity
  8
一般
  6
Continuous
 62
     7
370
     9
100
AcDbSpline
210
0.0
220
0.0
230
1.0
 70
    11
 71
     2
 72
    16
 73
    13
 74
     0
 42
0.0000000001
 43
0.0000000001
 40
0.0
 40
0.0
 40
0.0
 40
1.0
 40
1.0
 40
2.0
 40
2.0
 40
3.0
 40
3.0
 40
4.0
 40
4.0
 40
5.0
 40
5.0
 40
6.0
 40
6.0
 40
6.0
 10
2203.296697449988
 20
-1622.116722321366
 30
0.0
 10
2233.179949140799
 20
-1653.427063895651
 30
0.0
 10
2239.918327741016
 20
-1670.180851158602
 30
0.0
 10
2243.287517041124
 20
-1678.557744790077
 30
0.0
 10
2246.656706341232
 20
-1686.934638421552
 30
0.0
 10
2241.383196385987
 20
-1689.68115725948
 30
0.0
 10
2236.109686430742
 20
-1692.427676097408
 30
0.0
 10
2221.461019055084
 20
-1657.272199209387
 30
0.0
 10
2207.691284310844
 20
-1642.16633218983
 30
0.0
 10
2200.806416938724
 20
-1634.613398680051
 30
0.0
 10
2193.921549566604
 20
-1627.060465170273
 30
0.0
 10
2198.609123508296
 20
-1624.588593745819
 30
0.0
 10
2203.296697449988
 20
-1622.116722321366
 30
0.0
  0
SPLINE
  5
84
330
30
100
AcDbEntity
  8
一般
  6
Continuous
 62
     7
370
     9
100
AcDbSpline
210
0.0
220
0.0
230
1.0
 70
    11
 71
     2
 72
    28
 73
    25
 74
     0
 42
0.0000000001
 43
0.0000000001
 40
0.0
 40
0.0
 40
0.0
 40
1.0
 40
1.0
 40
2.0
 40
2.0
 40
3.0
 40
3.0
 40
4.0
 40
4.0
 40
5.0
 40
5.0
 40
6.0
 40
6.0
 40
7.0
 40
7.0
 40
8.0
 40
8.0
 40
9.0
 40
9.0
 40
10.0
 40
10.0
 40
11.0
 40
11.0
 40
12.0
 40
12.0
 40
12.0
 10
2392.573847024183
 20
-1635.849325451641
 30
0.0
 10
2380.268961850856
 20
-1659.469414279729
 30
0.0
 10
2373.237615243861
 20
-1666.061068431392
 30
0.0
 10
2369.721941940365
 20
-1669.356895507224
 30
0.0
 10
2366.206268636869
 20
-1672.652722583055
 30
0.0
 10
2341.01058135072
 20
-1696.272811411143
 30
0.0
 10
2318.744621817485
 20
-1699.293977662545
 30
0.0
 10
2307.611642050868
 20
-1700.804560788246
 30
0.0
 10
2296.478662284251
 20
-1702.315143913948
 30
0.0
 10
2295.306771183085
 20
-1705.610984400734
 30
0.0
 10
2294.427857625726
 20
-1704.787024279037
 30
0.0
 10
2293.988400847046
 20
-1704.375044218189
 30
0.0
 10
2293.548944068366
 20
-1703.963064157341
 30
0.0
 10
2290.912184322229
 20
-1697.920713773263
 30
0.0
 10
2288.275424576092
 20
-1691.878363389186
 30
0.0
 10
2333.979215669668
 20
-1689.131853491895
 30
0.0
 10
2345.991113762159
 20
-1677.871112845436
 30
0.0
 10
2351.997062808405
 20
-1672.240742522207
 30
0.0
 10
2358.00301185465
 20
-1666.610372198978
 30
0.0
 10
2373.823570331474
 20
-1651.779161533531
 30
0.0
 10
2379.09708028672
 20
-1640.243764532962
 30
0.0
 10
2381.733835264341
 20
-1634.476066032677
 30
0.0
 10
2384.370590241965
 20
-1628.708367532393
 30
0.0
 10
2388.472218633073
 20
-1632.278846492017
 30
0.0
 10
2392.573847024183
 20
-1635.849325451641
 30
0.0
  0
SPLINE
  5
85
330
30
100
AcDbEntity
  8
一般
  6
Continuous
 62
     7
370
     9
100
AcDbSpline
210
0.0
220
0.0
230
1.0
 70
    11
 71
     2
 72
    16
 73
    13
 74
     0
 42
0.0000000001
 43
0.0000000001
 40
0.0
 40
0.0
 40
0.0
 40
1.0
 40
1.0
 40
2.0
 40
2.0
 40
3.0
 40
3.0
 40
4.0
 40
4.0
 40
5.0
 40
5.0
 40
6.0
 40
6.0
 40
6.0
 10
2295.892726270697
 20
-1608.384119191091
 30
0.0
 10
2312.299220761075
 20
-1617.17297947246
 30
0.0
 10
2319.623544911875
 20
-1622.666026088952
 30
0.0
 10
2323.285706987274
 20
-1625.412549397197
 30
0.0
 10
2326.947869062674
 20
-1628.159072705444
 30
0.0
 10
2323.139218215371
 20
-1632.553502846128
 30
0.0
 10
2319.330567368068
 20
-1636.947932986812
 30
0.0
 10
2305.267855080022
 20
-1625.412544926879
 30
0.0
 10
2297.35758537864
 20
-1621.018114786195
 30
0.0
 10
2293.402450527948
 20
-1618.820899715853
 30
0.0
 10
2289.447315677257
 20
-1616.623684645511
 30
0.0
 10
2292.670020973976
 20
-1612.503901918301
 30
0.0
 10
2295.892726270697
 20
-1608.384119191091
 30
0.0
  0
SPLINE
  5
86
330
30
100
AcDbEntity
  8
一般
  6
Continuous
 62
     7
370
     9
100
AcDbSpline
210
0.0
220
0.0
230
1.0
 70
    11
 71
     2
 72
    76
 73
    73
 74
     0
 42
0.0000000001
 43
0.0000000001
 40
0.0
 40
0.0
 40
0.0
 40
1.0
 40
1.0
 40
2.0
 40
2.0
 40
3.0
 40
3.0
 40
4.0
 40
4.0
 40
5.0
 40
5.0
 40
6.0
 40
6.0
 40
7.0
 40
7.0
 40
8.0
 40
8.0
 40
9.0
 40
9.0
 40
10.0
 40
10.0
 40
11.0
 40
11.0
 40
12.0
 40
12.0
 40
13.0
 40
13.0
 40
14.0
 40
14.0
 40
15.0
 40
15.0
 40
16.0
 40
16.0
 40
17.0
 40
17.0
 40
18.0
 40
18.0
 40
19.0
 40
19.0
 40
20.0
 40
20.0
 40
21.0
 40
21.0
 40
22.0
 40
22.0
 40
23.0
 40
23.0
 40
24.0
 40
24.0
 40
25.0
 40
25.0
 40
26.0
 40
26.0
 40
27.0
 40
27.0
 40
28.0
 40
28.0
 40
29.0
 40
29.0
 40
30.0
 40
30.0
 40
31.0
 40
31.0
 40
32.0
 40
32.0
 40
33.0
 40
33.0
 40
34.0
 40
34.0
 40
35.0
 40
35.0
 40
36.0
 40
36.0
 40
36.0
 10
2485.169856770833
 20
-1635.318341048299
 30
0.0
 10
2481.654183467337
 20
-1670.656904291122
 30
0.0
 10
2471.6930995704
 20
-1679.894378891508
 30
0.0
 10
2466.712557621931
 20
-1684.513116191701
 30
0.0
 10
2461.732015673463
 20
-1689.131853491895
 30
0.0
 10
2447.083367371863
 20
-1702.86445662217
 30
0.0
 10
2442.102825423395
 20
-1705.061671692512
 30
0.0
 10
2439.612554449161
 20
-1706.160279227683
 30
0.0
 10
2437.122283474926
 20
-1707.258886762854
 30
0.0
 10
2433.313632627623
 20
-1703.413760389755
 30
0.0
 10
2429.504981780321
 20
-1699.568634016656
 30
0.0
 10
2444.15363008192
 20
-1692.427676097408
 30
0.0
 10
2448.841204023612
 20
-1688.033237016087
 30
0.0
 10
2451.184990994457
 20
-1685.836017475426
 30
0.0
 10
2453.528777965304
 20
-1683.638797934766
 30
0.0
 10
2472.845458835311
 20
-1665.731489747095
 30
0.0
 10
2474.017349936477
 20
-1650.524915397698
 30
0.0
 10
2474.60329548706
 20
-1642.921628222999
 30
0.0
 10
2475.189241037643
 20
-1635.318341048299
 30
0.0
 10
2454.104948060731
 20
-1635.318341048299
 30
0.0
 10
2433.020655083817
 20
-1635.318341048299
 30
0.0
 10
2433.020655083817
 20
-1630.640099341701
 30
0.0
 10
2433.020655083817
 20
-1625.961857635101
 30
0.0
 10
2454.114713978857
 20
-1625.961857635101
 30
0.0
 10
2475.208772873897
 20
-1625.961857635101
 30
0.0
 10
2475.199006955769
 20
-1610.855981674908
 30
0.0
 10
2475.189241037643
 20
-1595.750105714714
 30
0.0
 10
2480.76550399185
 20
-1596.2994094823
 30
0.0
 10
2486.341766946058
 20
-1596.848713249885
 30
0.0
 10
2488.685549148389
 20
-1597.947338666329
 30
0.0
 10
2486.927702959611
 20
-1599.0459462015
 30
0.0
 10
2486.048779865222
 20
-1599.595249969086
 30
0.0
 10
2485.169856770833
 20
-1600.144553736671
 30
0.0
 10
2485.169856770833
 20
-1613.053205685887
 30
0.0
 10
2485.169856770833
 20
-1625.961857635101
 30
0.0
 10
2508.90068494904
 20
-1625.961857635101
 30
0.0
 10
2532.631513127245
 20
-1625.961857635101
 30
0.0
 10
2531.459602952021
 20
-1658.920101571507
 30
0.0
 10
2530.287711850855
 20
-1666.610363258341
 30
0.0
 10
2529.701766300273
 20
-1670.455494101758
 30
0.0
 10
2529.11582074969
 20
-1674.300624945175
 30
0.0
 10
2526.186102533805
 20
-1694.075578459528
 30
0.0
 10
2523.549342787669
 20
-1696.547449883981
 30
0.0
 10
2522.2309629146
 20
-1697.783385596207
 30
0.0
 10
2520.912583041531
 20
-1699.019321308434
 30
0.0
 10
2516.225018636868
 20
-1703.413769330392
 30
0.0
 10
2510.951499144594
 20
-1703.413769330392
 30
0.0
 10
2508.314739398457
 20
-1703.413769330392
 30
0.0
 10
2505.67797965232
 20
-1703.413769330392
 30
0.0
 10
2501.576351261211
 20
-1703.413769330392
 30
0.0
 10
2496.595809312741
 20
-1702.86445662217
 30
0.0
 10
2494.105538338507
 20
-1702.589800268059
 30
0.0
 10
2491.615267364273
 20
-1702.315143913948
 30
0.0
 10
2490.736353806913
 20
-1697.096753651567
 30
0.0
 10
2489.857440249555
 20
-1691.878363389186
 30
0.0
 10
2499.818524146492
 20
-1693.526283632579
 30
0.0
 10
2502.748251899405
 20
-1693.526283632579
 30
0.0
 10
2504.213115775863
 20
-1693.526283632579
 30
0.0
 10
2505.67797965232
 20
-1693.526283632579
 30
0.0
 10
2511.537435158147
 20
-1693.526283632579
 30
0.0
 10
2512.416358252536
 20
-1692.702323510883
 30
0.0
 10
2512.855819799731
 20
-1692.290343450034
 30
0.0
 10
2513.295281346925
 20
-1691.878363389186
 30
0.0
 10
2516.810954650422
 20
-1688.582540783672
 30
0.0
 10
2517.689877744811
 20
-1683.638806875403
 30
0.0
 10
2518.129339292006
 20
-1681.166939921268
 30
0.0
 10
2518.5688008392
 20
-1678.695072967133
 30
0.0
 10
2522.084474142697
 20
-1659.725760210233
 30
0.0
 10
2522.377442149474
 20
-1647.522050629266
 30
0.0
 10
2522.523926152862
 20
-1641.420195838783
 30
0.0
 10
2522.67041015625
 20
-1635.318341048299
 30
0.0
 10
2503.920133463541
 20
-1635.318341048299
 30
0.0
 10
2485.169856770833
 20
-1635.318341048299
 30
0.0
  0
SPLINE
  5
87
330
30
100
AcDbEntity
  8
一般
  6
Continuous
 62
     7
370
     9
100
AcDbSpline
210
0.0
220
0.0
230
1.0
 70
    11
 71
     2
 72
    28
 73
    25
 74
     0
 42
0.0000000001
 43
0.0000000001
 40
0.0
 40
0.0
 40
0.0
 40
1.0
 40
1.0
 40
2.0
 40
2.0
 40
3.0
 40
3.0
 40
4.0
 40
4.0
 40
5.0
 40
5.0
 40
6.0
 40
6.0
 40
7.0
 40
7.0
 40
8.0
 40
8.0
 40
9.0
 40
9.0
 40
10.0
 40
10.0
 40
11.0
 40
11.0
 40
12.0
 40
12.0
 40
12.0
 10
2682.064308039633
 20
-1633.10281555435
 30
0.0
 10
2684.408090241965
 20
-1634.201423089521
 30
0.0
 10
2682.35727604641
 20
-1635.025374270581
 30
0.0
 10
2681.331868948633
 20
-1635.437349861111
 30
0.0
 10
2680.306461850856
 20
-1635.849325451641
 30
0.0
 10
2674.447006345028
 20
-1674.849937653397
 30
0.0
 10
2665.657813549257
 20
-1683.089503107817
 30
0.0
 10
2661.263217151371
 20
-1687.209285835027
 30
0.0
 10
2656.868620753485
 20
-1691.329068562237
 30
0.0
 10
2639.876190249555
 20
-1707.258886762854
 30
0.0
 10
2626.692401055897
 20
-1710.829365722478
 30
0.0
 10
2620.100506459069
 20
-1712.61460520229
 30
0.0
 10
2613.50861186224
 20
-1714.399844682103
 30
0.0
 10
2609.699961014937
 20
-1710.280061954893
 30
0.0
 10
2605.891310167635
 20
-1706.160279227683
 30
0.0
 10
2634.016715669668
 20
-1699.568634016656
 30
0.0
 10
2641.341049357497
 20
-1692.702332451519
 30
0.0
 10
2645.003216201412
 20
-1689.26918166895
 30
0.0
 10
2648.665383045326
 20
-1685.836030886381
 30
0.0
 10
2666.829704650422
 20
-1668.80758726932
 30
0.0
 10
2668.880518845977
 20
-1649.032633754967
 30
0.0
 10
2669.905925943754
 20
-1639.145156997791
 30
0.0
 10
2670.931333041532
 20
-1629.257680240615
 30
0.0
 10
2676.497820540582
 20
-1631.180247897482
 30
0.0
 10
2682.064308039633
 20
-1633.10281555435
 30
0.0
  0
SPLINE
  5
88
330
30
100
AcDbEntity
  8
一般
  6
Continuous
 62
     7
370
     9
100
AcDbSpline
210
0.0
220
0.0
230
1.0
 70
    11
 71
     2
 72
    16
 73
    13
 74
     0
 42
0.0000000001
 43
0.0000000001
 40
0.0
 40
0.0
 40
0.0
 40
1.0
 40
1.0
 40
2.0
 40
2.0
 40
3.0
 40
3.0
 40
4.0
 40
4.0
 40
5.0
 40
5.0
 40
6.0
 40
6.0
 40
6.0
 10
2626.399433049121
 20
-1628.159072705444
 30
0.0
 10
2635.188606770833
 20
-1640.243755592326
 30
0.0
 10
2638.118344060777
 20
-1646.835409743989
 30
0.0
 10
2639.583212705749
 20
-1650.13123681982
 30
0.0
 10
2641.048081350721
 20
-1653.427063895651
 30
0.0
 10
2636.653484952835
 20
-1655.624278965994
 30
0.0
 10
2632.258888554948
 20
-1657.821494036336
 30
0.0
 10
2626.399433049121
 20
-1644.088890906061
 30
0.0
 10
2622.004836651236
 20
-1638.046540521983
 30
0.0
 10
2619.807538452293
 20
-1635.025365329945
 30
0.0
 10
2617.61024025335
 20
-1632.004190137906
 30
0.0
 10
2622.004836651236
 20
-1630.081631421675
 30
0.0
 10
2626.399433049121
 20
-1628.159072705444
 30
0.0
  0
SPLINE
  5
89
330
30
100
AcDbEntity
  8
一般
  6
Continuous
 62
     7
370
     9
100
AcDbSpline
210
0.0
220
0.0
230
1.0
 70
    11
 71
     2
 72
    16
 73
    13
 74
     0
 42
0.0000000001
 43
0.0000000001
 40
0.0
 40
0.0
 40
0.0
 40
1.0
 40
1.0
 40
2.0
 40
2.0
 40
3.0
 40
3.0
 40
4.0
 40
4.0
 40
5.0
 40
5.0
 40
6.0
 40
6.0
 40
6.0
 10
2596.516162284251
 20
-1635.300030624692
 30
0.0
 10
2605.891310167635
 20
-1648.483321046745
 30
0.0
 10
2608.528069913772
 20
-1654.800327784934
 30
0.0
 10
2609.846449786841
 20
-1657.958831154028
 30
0.0
 10
2611.164829659909
 20
-1661.117334523122
 30
0.0
 10
2606.770233262023
 20
-1663.314549593464
 30
0.0
 10
2602.375636864138
 20
-1665.511764663807
 30
0.0
 10
2596.516162284251
 20
-1651.22984882531
 30
0.0
 10
2592.121565886365
 20
-1644.912851027758
 30
0.0
 10
2589.924267687423
 20
-1641.754352128981
 30
0.0
 10
2587.72696948848
 20
-1638.595853230206
 30
0.0
 10
2592.121565886365
 20
-1636.947941927449
 30
0.0
 10
2596.516162284251
 20
-1635.300030624692
 30
0.0
  0
SPLINE
  5
8A
330
30
100
AcDbEntity
  8
一般
  6
Continuous
 62
     7
370
     9
100
AcDbSpline
210
0.0
220
0.0
230
1.0
 70
    11
 71
     2
 72
    60
 73
    57
 74
     0
 42
0.0000000001
 43
0.0000000001
 40
0.0
 40
0.0
 40
0.0
 40
1.0
 40
1.0
 40
2.0
 40
2.0
 40
3.0
 40
3.0
 40
4.0
 40
4.0
 40
5.0
 40
5.0
 40
6.0
 40
6.0
 40
7.0
 40
7.0
 40
8.0
 40
8.0
 40
9.0
 40
9.0
 40
10.0
 40
10.0
 40
11.0
 40
11.0
 40
12.0
 40
12.0
 40
13.0
 40
13.0
 40
14.0
 40
14.0
 40
15.0
 40
15.0
 40
16.0
 40
16.0
 40
17.0
 40
17.0
 40
18.0
 40
18.0
 40
19.0
 40
19.0
 40
20.0
 40
20.0
 40
21.0
 40
21.0
 40
22.0
 40
22.0
 40
23.0
 40
23.0
 40
24.0
 40
24.0
 40
25.0
 40
25.0
 40
26.0
 40
26.0
 40
27.0
 40
27.0
 40
28.0
 40
28.0
 40
28.0
 10
2839.70035973424
 20
-1618.271587007631
 30
0.0
 10
2836.770622444296
 20
-1618.271587007631
 30
0.0
 10
2835.598731343131
 20
-1617.996939594156
 30
0.0
 10
2835.012785792548
 20
-1617.859615887419
 30
0.0
 10
2834.426840241965
 20
-1617.722292180682
 30
0.0
 10
2828.567384736137
 20
-1660.018726987951
 30
0.0
 10
2817.434409738035
 20
-1670.455507512713
 30
0.0
 10
2811.867922238983
 20
-1675.673897775094
 30
0.0
 10
2806.301434739932
 20
-1680.892288037475
 30
0.0
 10
2789.308985161943
 20
-1696.822106238092
 30
0.0
 10
2773.195468215372
 20
-1700.667241551827
 30
0.0
 10
2765.138709742086
 20
-1702.589809208695
 30
0.0
 10
2757.081951268801
 20
-1704.512376865563
 30
0.0
 10
2753.273300421497
 20
-1699.843290370768
 30
0.0
 10
2749.464649574195
 20
-1695.174203875972
 30
0.0
 10
2782.863574568503
 20
-1689.131853491895
 30
0.0
 10
2791.359799357497
 20
-1681.16693545095
 30
0.0
 10
2795.607911751995
 20
-1677.184476430477
 30
0.0
 10
2799.856024146491
 20
-1673.202017410004
 30
0.0
 10
2818.020345751588
 20
-1656.35669591029
 30
0.0
 10
2820.657105497725
 20
-1639.245864327632
 30
0.0
 10
2821.975485370794
 20
-1630.690448536303
 30
0.0
 10
2823.293865243863
 20
-1622.135032744974
 30
0.0
 10
2780.812769909977
 20
-1622.135032744974
 30
0.0
 10
2738.331674576093
 20
-1622.135032744974
 30
0.0
 10
2738.331674576093
 20
-1617.456791038374
 30
0.0
 10
2738.331674576093
 20
-1612.778549331776
 30
0.0
 10
2782.570606561726
 20
-1612.778549331776
 30
0.0
 10
2826.80953854736
 20
-1612.778549331776
 30
0.0
 10
2824.465756345028
 20
-1608.93341401804
 30
0.0
 10
2824.465756345028
 20
-1606.461542593587
 30
0.0
 10
2824.465756345028
 20
-1605.22560688136
 30
0.0
 10
2824.465756345028
 20
-1603.989671169134
 30
0.0
 10
2824.465756345028
 20
-1597.947338666329
 30
0.0
 10
2826.516570540583
 20
-1596.024771009461
 30
0.0
 10
2827.541977638361
 20
-1595.063487181028
 30
0.0
 10
2828.567384736137
 20
-1594.102203352594
 30
0.0
 10
2833.2549491408
 20
-1589.70777321191
 30
0.0
 10
2836.47765443752
 20
-1589.70777321191
 30
0.0
 10
2838.08900708588
 20
-1589.70777321191
 30
0.0
 10
2839.70035973424
 20
-1589.70777321191
 30
0.0
 10
2846.14577032768
 20
-1589.70777321191
 30
0.0
 10
2848.48955253001
 20
-1591.904988282252
 30
0.0
 10
2849.661443631176
 20
-1593.003595817423
 30
0.0
 10
2850.833334732342
 20
-1594.102203352594
 30
0.0
 10
2854.934963123452
 20
-1597.947338666329
 30
0.0
 10
2854.934963123452
 20
-1600.968504917732
 30
0.0
 10
2854.934963123452
 20
-1602.479088043433
 30
0.0
 10
2854.934963123452
 20
-1603.989671169134
 30
0.0
 10
2854.934963123452
 20
-1610.032021553211
 30
0.0
 10
2852.884148927897
 20
-1611.954589210079
 30
0.0
 10
2851.858741830119
 20
-1612.915873038512
 30
0.0
 10
2850.833334732342
 20
-1613.877156866946
 30
0.0
 10
2846.14577032768
 20
-1618.271587007631
 30
0.0
 10
2842.92306503096
 20
-1618.271587007631
 30
0.0
 10
2841.3117123826
 20
-1618.271587007631
 30
0.0
 10
2839.70035973424
 20
-1618.271587007631
 30
0.0
  0
SPLINE
  5
8B
330
30
100
AcDbEntity
  8
一般
  6
Continuous
 62
     7
370
     9
100
AcDbSpline
210
0.0
220
0.0
230
1.0
 70
    11
 71
     2
 72
    36
 73
    33
 74
     0
 42
0.0000000001
 43
0.0000000001
 40
0.0
 40
0.0
 40
0.0
 40
1.0
 40
1.0
 40
2.0
 40
2.0
 40
3.0
 40
3.0
 40
4.0
 40
4.0
 40
5.0
 40
5.0
 40
6.0
 40
6.0
 40
7.0
 40
7.0
 40
8.0
 40
8.0
 40
9.0
 40
9.0
 40
10.0
 40
10.0
 40
11.0
 40
11.0
 40
12.0
 40
12.0
 40
13.0
 40
13.0
 40
14.0
 40
14.0
 40
15.0
 40
15.0
 40
16.0
 40
16.0
 40
16.0
 10
2839.70035973424
 20
-1612.778549331776
 30
0.0
 10
2843.801988125349
 20
-1612.778549331776
 30
0.0
 10
2845.266847233292
 20
-1611.405285442493
 30
0.0
 10
2845.999276787263
 20
-1610.718653497852
 30
0.0
 10
2846.731706341233
 20
-1610.032021553211
 30
0.0
 10
2849.075488543565
 20
-1607.834806482869
 30
0.0
 10
2849.075488543565
 20
-1605.912238826001
 30
0.0
 10
2849.075488543565
 20
-1604.950954997567
 30
0.0
 10
2849.075488543565
 20
-1603.989671169134
 30
0.0
 10
2849.075488543565
 20
-1600.144553736671
 30
0.0
 10
2847.9035974424
 20
-1599.0459462015
 30
0.0
 10
2847.317651891817
 20
-1598.496642433915
 30
0.0
 10
2846.731706341233
 20
-1597.947338666329
 30
0.0
 10
2843.801988125349
 20
-1595.200810887765
 30
0.0
 10
2841.751173929794
 20
-1595.200810887765
 30
0.0
 10
2840.725766832017
 20
-1595.200810887765
 30
0.0
 10
2839.70035973424
 20
-1595.200810887765
 30
0.0
 10
2835.598731343131
 20
-1595.200810887765
 30
0.0
 10
2834.133872235188
 20
-1596.574074777047
 30
0.0
 10
2833.401442681216
 20
-1597.260706721688
 30
0.0
 10
2832.669013127246
 20
-1597.947338666329
 30
0.0
 10
2830.325211850856
 20
-1600.144553736671
 30
0.0
 10
2830.325211850856
 20
-1602.067112452902
 30
0.0
 10
2830.325211850856
 20
-1603.028391811018
 30
0.0
 10
2830.325211850856
 20
-1603.989671169134
 30
0.0
 10
2830.325211850856
 20
-1607.834806482869
 30
0.0
 10
2831.497112489051
 20
-1608.93341401804
 30
0.0
 10
2832.083062808149
 20
-1609.482717785626
 30
0.0
 10
2832.669013127246
 20
-1610.032021553211
 30
0.0
 10
2835.598731343131
 20
-1612.778549331776
 30
0.0
 10
2837.649545538685
 20
-1612.778549331776
 30
0.0
 10
2838.674952636463
 20
-1612.778549331776
 30
0.0
 10
2839.70035973424
 20
-1612.778549331776
 30
0.0
  0
SPLINE
  5
8C
330
30
100
AcDbEntity
  8
一般
  6
Continuous
 62
     7
370
     9
100
AcDbSpline
210
0.0
220
0.0
230
1.0
 70
    11
 71
     2
 72
    40
 73
    37
 74
     0
 42
0.0000000001
 43
0.0000000001
 40
0.0
 40
0.0
 40
0.0
 40
1.0
 40
1.0
 40
2.0
 40
2.0
 40
3.0
 40
3.0
 40
4.0
 40
4.0
 40
5.0
 40
5.0
 40
6.0
 40
6.0
 40
7.0
 40
7.0
 40
8.0
 40
8.0
 40
9.0
 40
9.0
 40
10.0
 40
10.0
 40
11.0
 40
11.0
 40
12.0
 40
12.0
 40
13.0
 40
13.0
 40
14.0
 40
14.0
 40
15.0
 40
15.0
 40
16.0
 40
16.0
 40
17.0
 40
17.0
 40
18.0
 40
18.0
 40
18.0
 10
1140.274626263107
 20
-1811.586746784106
 30
0.0
 10
1143.204363553051
 20
-1812.136059492329
 30
0.0
 10
1141.153549357496
 20
-1813.509314440974
 30
0.0
 10
1140.128142259719
 20
-1814.195941915296
 30
0.0
 10
1139.102735161942
 20
-1814.88256938962
 30
0.0
 10
1139.102735161942
 20
-1819.551655884415
 30
0.0
 10
1139.102735161942
 20
-1824.22074237921
 30
0.0
 10
1153.751393000571
 20
-1824.22074237921
 30
0.0
 10
1168.400050839199
 20
-1824.22074237921
 30
0.0
 10
1168.400050839199
 20
-1828.313059471009
 30
0.0
 10
1168.400050839199
 20
-1832.405376562808
 30
0.0
 10
1153.751393000571
 20
-1832.405376562808
 30
0.0
 10
1139.102735161942
 20
-1832.405376562808
 30
0.0
 10
1139.102735161942
 20
-1838.749848936408
 30
0.0
 10
1139.102735161942
 20
-1845.094321310007
 30
0.0
 10
1165.470313549256
 20
-1845.094321310007
 30
0.0
 10
1191.83789193657
 20
-1845.094321310007
 30
0.0
 10
1191.83789193657
 20
-1849.186638401806
 30
0.0
 10
1191.83789193657
 20
-1853.278955493604
 30
0.0
 10
1135.001116307862
 20
-1853.278955493604
 30
0.0
 10
1078.164340679155
 20
-1853.278955493604
 30
0.0
 10
1078.164340679155
 20
-1849.186638401806
 30
0.0
 10
1078.164340679155
 20
-1845.094321310007
 30
0.0
 10
1104.268239277043
 20
-1845.094321310007
 30
0.0
 10
1130.372137874932
 20
-1845.094321310007
 30
0.0
 10
1130.372137874932
 20
-1838.749848936408
 30
0.0
 10
1130.372137874932
 20
-1832.405376562808
 30
0.0
 10
1115.987159825728
 20
-1832.405376562808
 30
0.0
 10
1101.602181776525
 20
-1832.405376562808
 30
0.0
 10
1101.602181776525
 20
-1828.313059471009
 30
0.0
 10
1101.602181776525
 20
-1824.22074237921
 30
0.0
 10
1115.987159825728
 20
-1824.22074237921
 30
0.0
 10
1130.372137874932
 20
-1824.22074237921
 30
0.0
 10
1130.372137874932
 20
-1817.354440814073
 30
0.0
 10
1130.372137874932
 20
-1810.488139248935
 30
0.0
 10
1135.32338206902
 20
-1811.037443016521
 30
0.0
 10
1140.274626263107
 20
-1811.586746784106
 30
0.0
  0
SPLINE
  5
8D
330
30
100
AcDbEntity
  8
一般
  6
Continuous
 62
     7
370
     9
100
AcDbSpline
210
0.0
220
0.0
230
1.0
 70
    11
 71
     2
 72
    76
 73
    73
 74
     0
 42
0.0000000001
 43
0.0000000001
 40
0.0
 40
0.0
 40
0.0
 40
1.0
 40
1.0
 40
2.0
 40
2.0
 40
3.0
 40
3.0
 40
4.0
 40
4.0
 40
5.0
 40
5.0
 40
6.0
 40
6.0
 40
7.0
 40
7.0
 40
8.0
 40
8.0
 40
9.0
 40
9.0
 40
10.0
 40
10.0
 40
11.0
 40
11.0
 40
12.0
 40
12.0
 40
13.0
 40
13.0
 40
14.0
 40
14.0
 40
15.0
 40
15.0
 40
16.0
 40
16.0
 40
17.0
 40
17.0
 40
18.0
 40
18.0
 40
19.0
 40
19.0
 40
20.0
 40
20.0
 40
21.0
 40
21.0
 40
22.0
 40
22.0
 40
23.0
 40
23.0
 40
24.0
 40
24.0
 40
25.0
 40
25.0
 40
26.0
 40
26.0
 40
27.0
 40
27.0
 40
28.0
 40
28.0
 40
29.0
 40
29.0
 40
30.0
 40
30.0
 40
31.0
 40
31.0
 40
32.0
 40
32.0
 40
33.0
 40
33.0
 40
34.0
 40
34.0
 40
35.0
 40
35.0
 40
36.0
 40
36.0
 40
36.0
 10
1113.907047875793
 20
-1732.486932726696
 30
0.0
 10
1116.836785165737
 20
-1733.036227553645
 30
0.0
 10
1114.785970970182
 20
-1734.409491442927
 30
0.0
 10
1113.760563872405
 20
-1735.096123387568
 30
0.0
 10
1112.735156774628
 20
-1735.782755332209
 30
0.0
 10
1112.735156774628
 20
-1741.825105716287
 30
0.0
 10
1112.735156774628
 20
-1747.867456100364
 30
0.0
 10
1134.737436518437
 20
-1747.867456100364
 30
0.0
 10
1156.739716262246
 20
-1747.867456100364
 30
0.0
 10
1156.739716262246
 20
-1739.627890645945
 30
0.0
 10
1156.739716262246
 20
-1731.388325191525
 30
0.0
 10
1161.690960456334
 20
-1731.93762895911
 30
0.0
 10
1166.642204650422
 20
-1732.486932726696
 30
0.0
 10
1169.571941940365
 20
-1733.036227553645
 30
0.0
 10
1167.52112774481
 20
-1734.409491442927
 30
0.0
 10
1166.495720647033
 20
-1735.096123387568
 30
0.0
 10
1165.470313549256
 20
-1735.782755332209
 30
0.0
 10
1165.470313549256
 20
-1741.825105716287
 30
0.0
 10
1165.470313549256
 20
-1747.867456100364
 30
0.0
 10
1178.654102742913
 20
-1747.867456100364
 30
0.0
 10
1191.83789193657
 20
-1747.867456100364
 30
0.0
 10
1191.83789193657
 20
-1751.959773192163
 30
0.0
 10
1191.83789193657
 20
-1756.052090283962
 30
0.0
 10
1178.654102742913
 20
-1756.052090283962
 30
0.0
 10
1165.470313549256
 20
-1756.052090283962
 30
0.0
 10
1165.470313549256
 20
-1777.502420736482
 30
0.0
 10
1165.470313549256
 20
-1798.952751189002
 30
0.0
 10
1183.048699140799
 20
-1798.952751189002
 30
0.0
 10
1200.627084732342
 20
-1798.952751189002
 30
0.0
 10
1200.627084732342
 20
-1803.045068280801
 30
0.0
 10
1200.627084732342
 20
-1807.1373853726
 30
0.0
 10
1180.704916938468
 20
-1807.1373853726
 30
0.0
 10
1160.782749144594
 20
-1807.1373853726
 30
0.0
 10
1176.017352533805
 20
-1821.272817822238
 30
0.0
 10
1188.908164183656
 20
-1824.944004111703
 30
0.0
 10
1195.353570008582
 20
-1826.779597256435
 30
0.0
 10
1201.798975833507
 20
-1828.615190401168
 30
0.0
 10
1199.455193631176
 20
-1832.460316774267
 30
0.0
 10
1197.111411428845
 20
-1836.305443147365
 30
0.0
 10
1167.228159738034
 20
-1826.234871094752
 30
0.0
 10
1159.024912492845
 20
-1816.686128233676
 30
0.0
 10
1154.923288870251
 20
-1811.911756803138
 30
0.0
 10
1150.821665247657
 20
-1807.1373853726
 30
0.0
 10
1134.41517075728
 20
-1807.1373853726
 30
0.0
 10
1118.008676266902
 20
-1807.1373853726
 30
0.0
 10
1101.016245762972
 20
-1828.377154894272
 30
0.0
 10
1086.660565468149
 20
-1832.890602788404
 30
0.0
 10
1079.482725320738
 20
-1835.14732673547
 30
0.0
 10
1072.304885173327
 20
-1837.404050682537
 30
0.0
 10
1069.668125427189
 20
-1833.833571722912
 30
0.0
 10
1067.031365681052
 20
-1830.263092763288
 30
0.0
 10
1094.570835169532
 20
-1821.858733496402
 30
0.0
 10
1101.016245762972
 20
-1814.4980594345
 30
0.0
 10
1104.238951059692
 20
-1810.81772240355
 30
0.0
 10
1107.461656356412
 20
-1807.1373853726
 30
0.0
 10
1088.418402119897
 20
-1807.1373853726
 30
0.0
 10
1069.375147883383
 20
-1807.1373853726
 30
0.0
 10
1069.375147883383
 20
-1803.045068280801
 30
0.0
 10
1069.375147883383
 20
-1798.952751189002
 30
0.0
 10
1086.6898536855
 20
-1798.952751189002
 30
0.0
 10
1104.004559487618
 20
-1798.952751189002
 30
0.0
 10
1104.004559487618
 20
-1777.502420736482
 30
0.0
 10
1104.004559487618
 20
-1756.052090283962
 30
0.0
 10
1091.084450083386
 20
-1756.052090283962
 30
0.0
 10
1078.164340679155
 20
-1756.052090283962
 30
0.0
 10
1078.164340679155
 20
-1751.959773192163
 30
0.0
 10
1078.164340679155
 20
-1747.867456100364
 30
0.0
 10
1091.084450083386
 20
-1747.867456100364
 30
0.0
 10
1104.004559487618
 20
-1747.867456100364
 30
0.0
 10
1104.004559487618
 20
-1739.627890645945
 30
0.0
 10
1104.004559487618
 20
-1731.388325191525
 30
0.0
 10
1108.955803681705
 20
-1731.93762895911
 30
0.0
 10
1113.907047875793
 20
-1732.486932726696
 30
0.0
  0
LWPOLYLINE
  5
8E
330
30
100
AcDbEntity
  8
一般
  6
Continuous
 62
     7
370
     9
100
AcDbPolyline
 90
        4
 70
   129
 43
0.0
 10
1112.735156774628
 20
-1798.952751189002
 10
1156.739716262246
 20
-1798.952751189002
 10
1156.739716262246
 20
-1790.108941755539
 10
1112.735156774628
 20
-1790.108941755539
  0
LWPOLYLINE
  5
8F
330
30
100
AcDbEntity
  8
一般
  6
Continuous
 62
     7
370
     9
100
AcDbPolyline
 90
        4
 70
   129
 43
0.0
 10
1112.735156774628
 20
-1781.924307571941
 10
1156.739716262246
 20
-1781.924307571941
 10
1156.739716262246
 20
-1773.08051601975
 10
1112.735156774628
 20
-1773.08051601975
  0
LWPOLYLINE
  5
90
330
30
100
AcDbEntity
  8
一般
  6
Continuous
 62
     7
370
     9
100
AcDbPolyline
 90
        4
 70
   129
 43
0.0
 10
1112.735156774628
 20
-1764.895881836153
 10
1156.739716262246
 20
-1764.895881836153
 10
1156.739716262246
 20
-1756.052090283962
 10
1112.735156774628
 20
-1756.052090283962
  0
SPLINE
  5
91
330
30
100
AcDbEntity
  8
一般
  6
Continuous
 62
     7
370
     9
100
AcDbSpline
210
0.0
220
0.0
230
1.0
 70
    11
 71
     2
 72
    72
 73
    69
 74
     0
 42
0.0000000001
 43
0.0000000001
 40
0.0
 40
0.0
 40
0.0
 40
1.0
 40
1.0
 40
2.0
 40
2.0
 40
3.0
 40
3.0
 40
4.0
 40
4.0
 40
5.0
 40
5.0
 40
6.0
 40
6.0
 40
7.0
 40
7.0
 40
8.0
 40
8.0
 40
9.0
 40
9.0
 40
10.0
 40
10.0
 40
11.0
 40
11.0
 40
12.0
 40
12.0
 40
13.0
 40
13.0
 40
14.0
 40
14.0
 40
15.0
 40
15.0
 40
16.0
 40
16.0
 40
17.0
 40
17.0
 40
18.0
 40
18.0
 40
19.0
 40
19.0
 40
20.0
 40
20.0
 40
21.0
 40
21.0
 40
22.0
 40
22.0
 40
23.0
 40
23.0
 40
24.0
 40
24.0
 40
25.0
 40
25.0
 40
26.0
 40
26.0
 40
27.0
 40
27.0
 40
28.0
 40
28.0
 40
29.0
 40
29.0
 40
30.0
 40
30.0
 40
31.0
 40
31.0
 40
32.0
 40
32.0
 40
33.0
 40
33.0
 40
34.0
 40
34.0
 40
34.0
 10
1290.87933135072
 20
-1732.486932726696
 30
0.0
 10
1292.637158465439
 20
-1733.585540261867
 30
0.0
 10
1290.87932181369
 20
-1734.684147797039
 30
0.0
 10
1290.000403487816
 20
-1735.233451564624
 30
0.0
 10
1289.121485161942
 20
-1735.782755332209
 30
0.0
 10
1289.121485161942
 20
-1747.592799746253
 30
0.0
 10
1289.121485161942
 20
-1759.402844160297
 30
0.0
 10
1318.125823295393
 20
-1759.402844160297
 30
0.0
 10
1347.130161428845
 20
-1759.402844160297
 30
0.0
 10
1347.130161428845
 20
-1764.081085866896
 30
0.0
 10
1347.130161428845
 20
-1768.759327573495
 30
0.0
 10
1320.176637490948
 20
-1768.759327573495
 30
0.0
 10
1293.223113553051
 20
-1768.759327573495
 30
0.0
 10
1314.903127535703
 20
-1805.379602587563
 30
0.0
 10
1333.653404228411
 20
-1815.349476250972
 30
0.0
 10
1343.028542574765
 20
-1820.334413082676
 30
0.0
 10
1352.403680921119
 20
-1825.319349914382
 30
0.0
 10
1348.887998080593
 20
-1829.164485228117
 30
0.0
 10
1345.372315240067
 20
-1833.009620541852
 30
0.0
 10
1310.215544056982
 20
-1811.037451957157
 30
0.0
 10
1299.668514609462
 20
-1793.734360926621
 30
0.0
 10
1294.394999885702
 20
-1785.082815411353
 30
0.0
 10
1289.121485161942
 20
-1776.431269896086
 30
0.0
 10
1289.121485161942
 20
-1796.755527178024
 30
0.0
 10
1289.121485161942
 20
-1817.079784459962
 30
0.0
 10
1302.012306348822
 20
-1817.079784459962
 30
0.0
 10
1314.903127535703
 20
-1817.079784459962
 30
0.0
 10
1314.903127535703
 20
-1821.758026166561
 30
0.0
 10
1314.903127535703
 20
-1826.43626787316
 30
0.0
 10
1302.012306348822
 20
-1826.43626787316
 30
0.0
 10
1289.121485161942
 20
-1826.43626787316
 30
0.0
 10
1289.121485161942
 20
-1841.258332267439
 30
0.0
 10
1289.121485161942
 20
-1856.080396661718
 30
0.0
 10
1284.131177295346
 20
-1856.080396661718
 30
0.0
 10
1279.140869428751
 20
-1856.080396661718
 30
0.0
 10
1279.140869428751
 20
-1841.258332267439
 30
0.0
 10
1279.140869428751
 20
-1826.43626787316
 30
0.0
 10
1267.138737254387
 20
-1826.43626787316
 30
0.0
 10
1255.136605080022
 20
-1826.43626787316
 30
0.0
 10
1255.136605080022
 20
-1821.758026166561
 30
0.0
 10
1255.136605080022
 20
-1817.079784459962
 30
0.0
 10
1267.138737254387
 20
-1817.079784459962
 30
0.0
 10
1279.140869428751
 20
-1817.079784459962
 30
0.0
 10
1279.140869428751
 20
-1797.30483094561
 30
0.0
 10
1279.140869428751
 20
-1777.529877431257
 30
0.0
 10
1269.453231239366
 20
-1796.75553611866
 30
0.0
 10
1263.173841254083
 20
-1803.621837683798
 30
0.0
 10
1260.034146261442
 20
-1807.054988466367
 30
0.0
 10
1256.8944512688
 20
-1810.488139248935
 30
0.0
 10
1244.589585169532
 20
-1823.671447552262
 30
0.0
 10
1234.335523728788
 20
-1829.439141582228
 30
0.0
 10
1229.208493008417
 20
-1832.322988597211
 30
0.0
 10
1224.081462288046
 20
-1835.206835612195
 30
0.0
 10
1220.565788984549
 20
-1831.361709239096
 30
0.0
 10
1217.050115681052
 20
-1827.516582865996
 30
0.0
 10
1256.308496181188
 20
-1808.657132650741
 30
0.0
 10
1265.683634527542
 20
-1788.708230112118
 30
0.0
 10
1270.371203700719
 20
-1778.733778842807
 30
0.0
 10
1275.058772873896
 20
-1768.759327573495
 30
0.0
 10
1249.277149574194
 20
-1768.759327573495
 30
0.0
 10
1223.495526274492
 20
-1768.759327573495
 30
0.0
 10
1223.495526274492
 20
-1764.081085866896
 30
0.0
 10
1223.495526274492
 20
-1759.402844160297
 30
0.0
 10
1251.318197851622
 20
-1759.402844160297
 30
0.0
 10
1279.140869428751
 20
-1759.402844160297
 30
0.0
 10
1279.140869428751
 20
-1745.395584675911
 30
0.0
 10
1279.140869428751
 20
-1731.388325191525
 30
0.0
 10
1285.010100389735
 20
-1731.93762895911
 30
0.0
 10
1290.87933135072
 20
-1732.486932726696
 30
0.0
  0
SPLINE
  5
92
330
30
100
AcDbEntity
  8
一般
  6
Continuous
 62
     7
370
     9
100
AcDbSpline
210
0.0
220
0.0
230
1.0
 70
    11
 71
     2
 72
    16
 73
    13
 74
     0
 42
0.0000000001
 43
0.0000000001
 40
0.0
 40
0.0
 40
0.0
 40
1.0
 40
1.0
 40
2.0
 40
2.0
 40
3.0
 40
3.0
 40
4.0
 40
4.0
 40
5.0
 40
5.0
 40
6.0
 40
6.0
 40
6.0
 10
1405.155355080022
 20
-1757.754923916904
 30
0.0
 10
1416.288330078125
 20
-1770.388919512008
 30
0.0
 10
1418.925089824262
 20
-1776.980573663671
 30
0.0
 10
1420.24346969733
 20
-1780.276400739503
 30
0.0
 10
1421.561849570399
 20
-1783.572227815334
 30
0.0
 10
1417.753198723096
 20
-1785.494795472202
 30
0.0
 10
1413.944547875793
 20
-1787.41736312907
 30
0.0
 10
1407.499156356412
 20
-1773.684759998795
 30
0.0
 10
1402.518604870914
 20
-1767.642409614716
 30
0.0
 10
1400.028329128165
 20
-1764.621234422678
 30
0.0
 10
1397.538053385416
 20
-1761.600059230639
 30
0.0
 10
1401.346704232719
 20
-1759.677491573772
 30
0.0
 10
1405.155355080022
 20
-1757.754923916904
 30
0.0
  0
SPLINE
  5
93
330
30
100
AcDbEntity
  8
一般
  6
Continuous
 62
     7
370
     9
100
AcDbSpline
210
0.0
220
0.0
230
1.0
 70
    11
 71
     2
 72
    60
 73
    57
 74
     0
 42
0.0000000001
 43
0.0000000001
 40
0.0
 40
0.0
 40
0.0
 40
1.0
 40
1.0
 40
2.0
 40
2.0
 40
3.0
 40
3.0
 40
4.0
 40
4.0
 40
5.0
 40
5.0
 40
6.0
 40
6.0
 40
7.0
 40
7.0
 40
8.0
 40
8.0
 40
9.0
 40
9.0
 40
10.0
 40
10.0
 40
11.0
 40
11.0
 40
12.0
 40
12.0
 40
13.0
 40
13.0
 40
14.0
 40
14.0
 40
15.0
 40
15.0
 40
16.0
 40
16.0
 40
17.0
 40
17.0
 40
18.0
 40
18.0
 40
19.0
 40
19.0
 40
20.0
 40
20.0
 40
21.0
 40
21.0
 40
22.0
 40
22.0
 40
23.0
 40
23.0
 40
24.0
 40
24.0
 40
25.0
 40
25.0
 40
26.0
 40
26.0
 40
27.0
 40
27.0
 40
28.0
 40
28.0
 40
28.0
 10
1474.297006345027
 20
-1757.754923916904
 30
0.0
 10
1479.570525837302
 20
-1759.402844160297
 30
0.0
 10
1476.640798084388
 20
-1760.501451695469
 30
0.0
 10
1475.175934207931
 20
-1761.050755463054
 30
0.0
 10
1473.711070331474
 20
-1761.600059230639
 30
0.0
 10
1466.679704650422
 20
-1774.783367533966
 30
0.0
 10
1464.33592244809
 20
-1778.628493907065
 30
0.0
 10
1463.164031346925
 20
-1780.551057093614
 30
0.0
 10
1461.992140245759
 20
-1782.473620280163
 30
0.0
 10
1453.202947449988
 20
-1796.75553611866
 30
0.0
 10
1447.929427957713
 20
-1801.69927002693
 30
0.0
 10
1445.292668211576
 20
-1804.171136981065
 30
0.0
 10
1442.655908465439
 20
-1806.643003935201
 30
0.0
 10
1461.406185158147
 20
-1815.981176924791
 30
0.0
 10
1469.902409947142
 20
-1820.650263419586
 30
0.0
 10
1474.150522341639
 20
-1822.984806666984
 30
0.0
 10
1478.398634736136
 20
-1825.319349914382
 30
0.0
 10
1475.468897446193
 20
-1828.889828874006
 30
0.0
 10
1472.53916015625
 20
-1832.46030783363
 30
0.0
 10
1454.374838551153
 20
-1822.023527308868
 30
0.0
 10
1445.292677748605
 20
-1817.354440814073
 30
0.0
 10
1440.751597347331
 20
-1815.019897566676
 30
0.0
 10
1436.210516946057
 20
-1812.685354319277
 30
0.0
 10
1429.179151265005
 20
-1819.277017411577
 30
0.0
 10
1423.026718215371
 20
-1822.847496371201
 30
0.0
 10
1419.950501690554
 20
-1824.632735851013
 30
0.0
 10
1416.874285165737
 20
-1826.417975330826
 30
0.0
 10
1407.499156356412
 20
-1831.911013006681
 30
0.0
 10
1402.518604870914
 20
-1834.108228077024
 30
0.0
 10
1400.028329128165
 20
-1835.206835612195
 30
0.0
 10
1397.538053385416
 20
-1836.305443147365
 30
0.0
 10
1394.02238008192
 20
-1833.009620541852
 30
0.0
 10
1390.506706778422
 20
-1829.713797936339
 30
0.0
 10
1409.842938558743
 20
-1822.57284001709
 30
0.0
 10
1419.218076905097
 20
-1815.706538451953
 30
0.0
 10
1423.905646078274
 20
-1812.273387669385
 30
0.0
 10
1428.593215251451
 20
-1808.840236886815
 30
0.0
 10
1412.186720761074
 20
-1800.051358724174
 30
0.0
 10
1403.104550421497
 20
-1796.75553611866
 30
0.0
 10
1398.563465251708
 20
-1795.107624815904
 30
0.0
 10
1394.02238008192
 20
-1793.459713513147
 30
0.0
 10
1396.659139828057
 20
-1790.438538321108
 30
0.0
 10
1399.295899574194
 20
-1787.41736312907
 30
0.0
 10
1417.460240253349
 20
-1794.558321048318
 30
0.0
 10
1426.249423512091
 20
-1798.678103775528
 30
0.0
 10
1430.644015141462
 20
-1800.737995139133
 30
0.0
 10
1435.038606770833
 20
-1802.797886502738
 30
0.0
 10
1444.999709741829
 20
-1792.910400804925
 30
0.0
 10
1449.394296602685
 20
-1786.318746653262
 30
0.0
 10
1451.591590033113
 20
-1783.02291957743
 30
0.0
 10
1453.788883463541
 20
-1779.727092501599
 30
0.0
 10
1460.234294056981
 20
-1769.839624685059
 30
0.0
 10
1463.164031346925
 20
-1762.149362998225
 30
0.0
 10
1464.628899991897
 20
-1758.304232154808
 30
0.0
 10
1466.093768636868
 20
-1754.459101311391
 30
0.0
 10
1470.195387490948
 20
-1756.107012614148
 30
0.0
 10
1474.297006345027
 20
-1757.754923916904
 30
0.0
  0
SPLINE
  5
94
330
30
100
AcDbEntity
  8
一般
  6
Continuous
 62
     7
370
     9
100
AcDbSpline
210
0.0
220
0.0
230
1.0
 70
    11
 71
     2
 72
    16
 73
    13
 74
     0
 42
0.0000000001
 43
0.0000000001
 40
0.0
 40
0.0
 40
0.0
 40
1.0
 40
1.0
 40
2.0
 40
2.0
 40
3.0
 40
3.0
 40
4.0
 40
4.0
 40
5.0
 40
5.0
 40
6.0
 40
6.0
 40
6.0
 10
1429.765106352617
 20
-1752.261886241049
 30
0.0
 10
1439.726190249554
 20
-1763.797274300982
 30
0.0
 10
1442.655918002468
 20
-1770.388928452645
 30
0.0
 10
1444.120781878925
 20
-1773.684755528476
 30
0.0
 10
1445.585645755382
 20
-1776.980582604308
 30
0.0
 10
1441.484026901303
 20
-1778.628493907065
 30
0.0
 10
1437.382408047223
 20
-1780.276405209821
 30
0.0
 10
1430.936997453783
 20
-1766.543802079546
 30
0.0
 10
1426.542401055897
 20
-1761.325411817165
 30
0.0
 10
1424.345102856954
 20
-1758.716216685974
 30
0.0
 10
1422.147804658011
 20
-1756.107021554784
 30
0.0
 10
1425.956455505314
 20
-1754.184453897916
 30
0.0
 10
1429.765106352617
 20
-1752.261886241049
 30
0.0
  0
LWPOLYLINE
  5
95
330
30
100
AcDbEntity
  8
一般
  6
Continuous
 62
     7
370
     9
100
AcDbPolyline
 90
        8
 70
   129
 43
0.0
 10
1493.633238125348
 20
-1738.529283110774
 10
1493.633238125348
 20
-1854.981789126547
 10
1484.902640838337
 20
-1854.981789126547
 10
1484.902640838337
 20
-1848.884507471647
 10
1385.233187286148
 20
-1848.884507471647
 10
1385.233187286148
 20
-1855.531101834769
 10
1376.502589999138
 20
-1855.531101834769
 10
1376.502589999138
 20
-1738.529283110774
  0
LWPOLYLINE
  5
96
330
30
100
AcDbEntity
  8
一般
  6
Continuous
 62
     7
370
     9
100
AcDbPolyline
 90
        4
 70
   129
 43
0.0
 10
1385.233187286148
 20
-1840.69987328805
 10
1484.902640838337
 20
-1840.69987328805
 10
1484.902640838337
 20
-1746.713917294371
 10
1385.233187286148
 20
-1746.713917294371
  0
SPLINE
  5
97
330
30
100
AcDbEntity
  8
一般
  6
Continuous
 62
     7
370
     9
100
AcDbSpline
210
0.0
220
0.0
230
1.0
 70
    11
 71
     2
 72
    40
 73
    37
 74
     0
 42
0.0000000001
 43
0.0000000001
 40
0.0
 40
0.0
 40
0.0
 40
1.0
 40
1.0
 40
2.0
 40
2.0
 40
3.0
 40
3.0
 40
4.0
 40
4.0
 40
5.0
 40
5.0
 40
6.0
 40
6.0
 40
7.0
 40
7.0
 40
8.0
 40
8.0
 40
9.0
 40
9.0
 40
10.0
 40
10.0
 40
11.0
 40
11.0
 40
12.0
 40
12.0
 40
13.0
 40
13.0
 40
14.0
 40
14.0
 40
15.0
 40
15.0
 40
16.0
 40
16.0
 40
17.0
 40
17.0
 40
18.0
 40
18.0
 40
18.0
 10
1649.511443631176
 20
-1739.627890645945
 30
0.0
 10
1649.511443631176
 20
-1743.720207737743
 30
0.0
 10
1649.511443631176
 20
-1747.812524829542
 30
0.0
 10
1619.628191940365
 20
-1747.812524829542
 30
0.0
 10
1589.744940249554
 20
-1747.812524829542
 30
0.0
 10
1586.81520295961
 20
-1758.81691060486
 30
0.0
 10
1584.764388764056
 20
-1764.053611290849
 30
0.0
 10
1583.738981666279
 20
-1766.671961633843
 30
0.0
 10
1582.713574568501
 20
-1769.290311976837
 30
0.0
 10
1611.13196715137
 20
-1769.290311976837
 30
0.0
 10
1639.550359734239
 20
-1769.290311976837
 30
0.0
 10
1639.550359734239
 20
-1812.136050551692
 30
0.0
 10
1639.550359734239
 20
-1854.981789126547
 30
0.0
 10
1635.185061090734
 20
-1854.981789126547
 30
0.0
 10
1630.819762447229
 20
-1854.981789126547
 30
0.0
 10
1630.819762447229
 20
-1851.383844531511
 30
0.0
 10
1630.819762447229
 20
-1847.785899936476
 30
0.0
 10
1584.793696055466
 20
-1847.785899936476
 30
0.0
 10
1538.767629663704
 20
-1847.785899936476
 30
0.0
 10
1538.767629663704
 20
-1851.383844531511
 30
0.0
 10
1538.767629663704
 20
-1854.981789126547
 30
0.0
 10
1534.402331020198
 20
-1854.981789126547
 30
0.0
 10
1530.037032376693
 20
-1854.981789126547
 30
0.0
 10
1530.037032376693
 20
-1812.136050551692
 30
0.0
 10
1530.037032376693
 20
-1769.290311976837
 30
0.0
 10
1552.273684618518
 20
-1769.290311976837
 30
0.0
 10
1574.510336860342
 20
-1769.290311976837
 30
0.0
 10
1578.026010163839
 20
-1758.81691060486
 30
0.0
 10
1578.904933258228
 20
-1753.314717717201
 30
0.0
 10
1579.344394805423
 20
-1750.563621273371
 30
0.0
 10
1579.783856352617
 20
-1747.812524829542
 30
0.0
 10
1551.365463769748
 20
-1747.812524829542
 30
0.0
 10
1522.94707118688
 20
-1747.812524829542
 30
0.0
 10
1522.94707118688
 20
-1743.720207737743
 30
0.0
 10
1522.94707118688
 20
-1739.627890645945
 30
0.0
 10
1586.229257409028
 20
-1739.627890645945
 30
0.0
 10
1649.511443631176
 20
-1739.627890645945
 30
0.0
  0
LWPOLYLINE
  5
98
330
30
100
AcDbEntity
  8
一般
  6
Continuous
 62
     7
370
     9
100
AcDbPolyline
 90
        4
 70
   129
 43
0.0
 10
1570.408708469233
 20
-1839.601265752879
 10
1599.17866456764
 20
-1839.601265752879
 10
1599.17866456764
 20
-1821.419301211097
 10
1570.408708469233
 20
-1821.419301211097
  0
LWPOLYLINE
  5
99
330
30
100
AcDbEntity
  8
一般
  6
Continuous
 62
     7
370
     9
100
AcDbPolyline
 90
        4
 70
   129
 43
0.0
 10
1570.408708469233
 20
-1813.2346670275
 10
1599.17866456764
 20
-1813.2346670275
 10
1599.17866456764
 20
-1799.996427453351
 10
1570.408708469233
 20
-1799.996427453351
  0
LWPOLYLINE
  5
9A
330
30
100
AcDbEntity
  8
一般
  6
Continuous
 62
     7
370
     9
100
AcDbPolyline
 90
        4
 70
   129
 43
0.0
 10
1538.767629663704
 20
-1839.601265752879
 10
1561.678111182223
 20
-1839.601265752879
 10
1561.678111182223
 20
-1777.474946160435
 10
1538.767629663704
 20
-1777.474946160435
  0
LWPOLYLINE
  5
9B
330
30
100
AcDbEntity
  8
一般
  6
Continuous
 62
     7
370
     9
100
AcDbPolyline
 90
        4
 70
   129
 43
0.0
 10
1570.408708469233
 20
-1791.811793269754
 10
1599.17866456764
 20
-1791.811793269754
 10
1599.17866456764
 20
-1777.474946160435
 10
1570.408708469233
 20
-1777.474946160435
  0
LWPOLYLINE
  5
9C
330
30
100
AcDbEntity
  8
一般
  6
Continuous
 62
     7
370
     9
100
AcDbPolyline
 90
        4
 70
   129
 43
0.0
 10
1607.90926185465
 20
-1839.601265752879
 10
1630.819762447229
 20
-1839.601265752879
 10
1630.819762447229
 20
-1777.474946160435
 10
1607.90926185465
 20
-1777.474946160435
  0
SPLINE
  5
9D
330
30
100
AcDbEntity
  8
一般
  6
Continuous
 62
     7
370
     9
100
AcDbSpline
210
0.0
220
0.0
230
1.0
 70
    11
 71
     2
 72
    40
 73
    37
 74
     0
 42
0.0000000001
 43
0.0000000001
 40
0.0
 40
0.0
 40
0.0
 40
1.0
 40
1.0
 40
2.0
 40
2.0
 40
3.0
 40
3.0
 40
4.0
 40
4.0
 40
5.0
 40
5.0
 40
6.0
 40
6.0
 40
7.0
 40
7.0
 40
8.0
 40
8.0
 40
9.0
 40
9.0
 40
10.0
 40
10.0
 40
11.0
 40
11.0
 40
12.0
 40
12.0
 40
13.0
 40
13.0
 40
14.0
 40
14.0
 40
15.0
 40
15.0
 40
16.0
 40
16.0
 40
17.0
 40
17.0
 40
18.0
 40
18.0
 40
18.0
 10
1726.28693304912
 20
-1731.42494603874
 30
0.0
 10
1712.224220761075
 20
-1743.509628925622
 30
0.0
 10
1708.708537920548
 20
-1751.749194380042
 30
0.0
 10
1706.950696500285
 20
-1755.868977107251
 30
0.0
 10
1705.192855080022
 20
-1759.988759834461
 30
0.0
 10
1698.747463560641
 20
-1775.369283208129
 30
0.0
 10
1698.747463560641
 20
-1783.608848662549
 30
0.0
 10
1698.747463560641
 20
-1787.728631389759
 30
0.0
 10
1698.747463560641
 20
-1791.848414116969
 30
0.0
 10
1698.747463560641
 20
-1808.876839852757
 30
0.0
 10
1701.970159320331
 20
-1816.292454126116
 30
0.0
 10
1703.581507200176
 20
-1820.000261262796
 30
0.0
 10
1705.192855080022
 20
-1823.708068399476
 30
0.0
 10
1712.224220761075
 20
-1840.187199308315
 30
0.0
 10
1719.255576905098
 20
-1846.229540751757
 30
0.0
 10
1722.771254977109
 20
-1849.250711473477
 30
0.0
 10
1726.28693304912
 20
-1852.271882195197
 30
0.0
 10
1723.943141309759
 20
-1855.018409973762
 30
0.0
 10
1721.599349570399
 20
-1857.764937752326
 30
0.0
 10
1705.778810167634
 20
-1841.835101670436
 30
0.0
 10
1702.556104870914
 20
-1834.144839983602
 30
0.0
 10
1700.944752222554
 20
-1830.299709140184
 30
0.0
 10
1699.333399574194
 20
-1826.454578296768
 30
0.0
 10
1692.3020529672
 20
-1809.426152560979
 30
0.0
 10
1692.3020529672
 20
-1800.637283338974
 30
0.0
 10
1692.3020529672
 20
-1796.242848727971
 30
0.0
 10
1692.3020529672
 20
-1791.848414116969
 30
0.0
 10
1692.3020529672
 20
-1774.270675672958
 30
0.0
 10
1695.817726270697
 20
-1765.756462805064
 30
0.0
 10
1697.575562922446
 20
-1761.499356371117
 30
0.0
 10
1699.333399574194
 20
-1757.24224993717
 30
0.0
 10
1705.778810167634
 20
-1741.861726563501
 30
0.0
 10
1713.689079869017
 20
-1733.896808522557
 30
0.0
 10
1717.644214719707
 20
-1729.914349502084
 30
0.0
 10
1721.599349570399
 20
-1725.931890481611
 30
0.0
 10
1723.943141309759
 20
-1728.678418260176
 30
0.0
 10
1726.28693304912
 20
-1731.42494603874
 30
0.0
  0
SPLINE
  5
9E
330
30
100
AcDbEntity
  8
一般
  6
Continuous
 62
     7
370
     9
100
AcDbSpline
210
0.0
220
0.0
230
1.0
 70
    11
 71
     2
 72
    86
 73
    83
 74
     0
 42
0.0000000001
 43
0.0000000001
 40
0.0
 40
0.0
 40
0.0
 40
1.0
 40
1.0
 40
2.0
 40
2.0
 40
3.0
 40
3.0
 40
4.0
 40
4.0
 40
5.0
 40
5.0
 40
6.0
 40
6.0
 40
7.0
 40
7.0
 40
8.0
 40
8.0
 40
9.0
 40
9.0
 40
10.0
 40
10.0
 40
11.0
 40
11.0
 40
12.0
 40
12.0
 40
13.0
 40
13.0
 40
14.0
 40
14.0
 40
15.0
 40
15.0
 40
16.0
 40
16.0
 40
17.0
 40
17.0
 40
18.0
 40
18.0
 40
19.0
 40
19.0
 40
20.0
 40
20.0
 40
21.0
 40
21.0
 40
22.0
 40
22.0
 40
23.0
 40
23.0
 40
24.0
 40
24.0
 40
25.0
 40
25.0
 40
26.0
 40
26.0
 40
27.0
 40
27.0
 40
28.0
 40
28.0
 40
29.0
 40
29.0
 40
30.0
 40
30.0
 40
31.0
 40
31.0
 40
32.0
 40
32.0
 40
33.0
 40
33.0
 40
34.0
 40
34.0
 40
35.0
 40
35.0
 40
36.0
 40
36.0
 40
37.0
 40
37.0
 40
38.0
 40
38.0
 40
39.0
 40
39.0
 40
40.0
 40
40.0
 40
41.0
 40
41.0
 40
41.0
 10
1855.745194716245
 20
-1744.571615613578
 30
0.0
 10
1857.503040905023
 20
-1746.219535856971
 30
0.0
 10
1855.159249165663
 20
-1746.219535856971
 30
0.0
 10
1853.987353295982
 20
-1746.219535856971
 30
0.0
 10
1852.815457426302
 20
-1746.219535856971
 30
0.0
 10
1833.479235183011
 20
-1758.029580271015
 30
0.0
 10
1814.14301293972
 20
-1769.839624685059
 30
0.0
 10
1819.709500438771
 20
-1773.135447290572
 30
0.0
 10
1825.275987937822
 20
-1776.431269896086
 30
0.0
 10
1822.639237728714
 20
-1779.452445088124
 30
0.0
 10
1820.002487519606
 20
-1782.473620280163
 30
0.0
 10
1839.338709762897
 20
-1782.473620280163
 30
0.0
 10
1858.674932006189
 20
-1782.473620280163
 30
0.0
 10
1859.260877556772
 20
-1781.649660158466
 30
0.0
 10
1859.846823107354
 20
-1780.82570003677
 30
0.0
 10
1864.534387512017
 20
-1783.572227815334
 30
0.0
 10
1869.221951916679
 20
-1786.318755593899
 30
0.0
 10
1872.737625220176
 20
-1788.51597066424
 30
0.0
 10
1869.514919923456
 20
-1789.065274431826
 30
0.0
 10
1867.903567275096
 20
-1789.339926315619
 30
0.0
 10
1866.292214626735
 20
-1789.614578199411
 30
0.0
 10
1855.745194716245
 20
-1801.149966259345
 30
0.0
 10
1851.643566325136
 20
-1804.445788864858
 30
0.0
 10
1849.592752129582
 20
-1806.093700167614
 30
0.0
 10
1847.541937934028
 20
-1807.741611470371
 30
0.0
 10
1839.338700225868
 20
-1814.33327456267
 30
0.0
 10
1832.600321625651
 20
-1818.727704703355
 30
0.0
 10
1829.231132325543
 20
-1820.924919773697
 30
0.0
 10
1825.861943025435
 20
-1823.122134844039
 30
0.0
 10
1822.346260184908
 20
-1819.826312238526
 30
0.0
 10
1818.830577344382
 20
-1816.530489633013
 30
0.0
 10
1836.994918023537
 20
-1807.55852511557
 30
0.0
 10
1845.491133275502
 20
-1799.108389789665
 30
0.0
 10
1849.739240901485
 20
-1794.883322126713
 30
0.0
 10
1853.987348527468
 20
-1790.658254463761
 30
0.0
 10
1834.3581582774
 20
-1790.658254463761
 30
0.0
 10
1814.728968027332
 20
-1790.658254463761
 30
0.0
 10
1814.728968027332
 20
-1817.601631532773
 30
0.0
 10
1814.728968027332
 20
-1844.545008601785
 30
0.0
 10
1814.728968027332
 20
-1853.901492014984
 30
0.0
 10
1810.627339636223
 20
-1853.901492014984
 30
0.0
 10
1808.576525440668
 20
-1853.901492014984
 30
0.0
 10
1806.525711245114
 20
-1853.901492014984
 30
0.0
 10
1796.857604891983
 20
-1853.901492014984
 30
0.0
 10
1787.189498538852
 20
-1853.901492014984
 30
0.0
 10
1786.017607437687
 20
-1849.223250308384
 30
0.0
 10
1784.845716336521
 20
-1844.545008601785
 30
0.0
 10
1793.927877139069
 20
-1844.545008601785
 30
0.0
 10
1803.010037941617
 20
-1844.545008601785
 30
0.0
 10
1804.748352294141
 20
-1844.545008601785
 30
0.0
 10
1804.748352294141
 20
-1843.446401066614
 30
0.0
 10
1804.748352294141
 20
-1842.897097299029
 30
0.0
 10
1804.748352294141
 20
-1842.347793531443
 30
0.0
 10
1804.748352294141
 20
-1816.503023997602
 30
0.0
 10
1804.748352294141
 20
-1790.658254463761
 30
0.0
 10
1776.339725629399
 20
-1790.658254463761
 30
0.0
 10
1747.931098964657
 20
-1790.658254463761
 30
0.0
 10
1747.931098964657
 20
-1786.565937371962
 30
0.0
 10
1747.931098964657
 20
-1782.473620280163
 30
0.0
 10
1783.087870147743
 20
-1782.473620280163
 30
0.0
 10
1818.244641330829
 20
-1782.473620280163
 30
0.0
 10
1803.595993029229
 20
-1772.58613458235
 30
0.0
 10
1791.877062943514
 20
-1766.269136784799
 30
0.0
 10
1786.017597900657
 20
-1763.110637886022
 30
0.0
 10
1780.1581328578
 20
-1759.952138987246
 30
0.0
 10
1783.673815698326
 20
-1757.205620149318
 30
0.0
 10
1787.189498538852
 20
-1754.459101311391
 30
0.0
 10
1797.150582435789
 20
-1759.952147927883
 30
0.0
 10
1807.111666332726
 20
-1765.445194544375
 30
0.0
 10
1823.518160823103
 20
-1756.619695534518
 30
0.0
 10
1830.549507430097
 20
-1751.941453827919
 30
0.0
 10
1834.065180733593
 20
-1749.60233297462
 30
0.0
 10
1837.58085403709
 20
-1747.26321212132
 30
0.0
 10
1799.494355101091
 20
-1747.26321212132
 30
0.0
 10
1761.407856165091
 20
-1747.26321212132
 30
0.0
 10
1761.407856165091
 20
-1743.170895029522
 30
0.0
 10
1761.407856165091
 20
-1739.078577937723
 30
0.0
 10
1803.888951498976
 20
-1739.078577937723
 30
0.0
 10
1846.370046832862
 20
-1739.078577937723
 30
0.0
 10
1847.541947471057
 20
-1737.979970402552
 30
0.0
 10
1848.713848109252
 20
-1736.88136286738
 30
0.0
 10
1852.229521412748
 20
-1740.726489240479
 30
0.0
 10
1855.745194716245
 20
-1744.571615613578
 30
0.0
  0
SPLINE
  5
9F
330
30
100
AcDbEntity
  8
一般
  6
Continuous
 62
     7
370
     9
100
AcDbSpline
210
0.0
220
0.0
230
1.0
 70
    11
 71
     2
 72
    52
 73
    49
 74
     0
 42
0.0000000001
 43
0.0000000001
 40
0.0
 40
0.0
 40
0.0
 40
1.0
 40
1.0
 40
2.0
 40
2.0
 40
3.0
 40
3.0
 40
4.0
 40
4.0
 40
5.0
 40
5.0
 40
6.0
 40
6.0
 40
7.0
 40
7.0
 40
8.0
 40
8.0
 40
9.0
 40
9.0
 40
10.0
 40
10.0
 40
11.0
 40
11.0
 40
12.0
 40
12.0
 40
13.0
 40
13.0
 40
14.0
 40
14.0
 40
15.0
 40
15.0
 40
16.0
 40
16.0
 40
17.0
 40
17.0
 40
18.0
 40
18.0
 40
19.0
 40
19.0
 40
20.0
 40
20.0
 40
21.0
 40
21.0
 40
22.0
 40
22.0
 40
23.0
 40
23.0
 40
24.0
 40
24.0
 40
24.0
 10
2015.13907352557
 20
-1735.782755332209
 30
0.0
 10
2015.13907352557
 20
-1748.389285291902
 30
0.0
 10
2015.13907352557
 20
-1760.995815251595
 30
0.0
 10
2001.662316325136
 20
-1760.995815251595
 30
0.0
 10
1988.185559124702
 20
-1760.995815251595
 30
0.0
 10
1988.185559124702
 20
-1764.868416200742
 30
0.0
 10
1988.185559124702
 20
-1768.741017149888
 30
0.0
 10
1988.185559124702
 20
-1771.487527047179
 30
0.0
 10
1989.650427769674
 20
-1771.487527047179
 30
0.0
 10
1990.38286209216
 20
-1771.487527047179
 30
0.0
 10
1991.115296414646
 20
-1771.487527047179
 30
0.0
 10
1998.732588572222
 20
-1771.487527047179
 30
0.0
 10
2006.349880729799
 20
-1771.487527047179
 30
0.0
 10
2011.03746420852
 20
-1771.487527047179
 30
0.0
 10
2011.91637776588
 20
-1770.663575866119
 30
0.0
 10
2012.35583454456
 20
-1770.251600275589
 30
0.0
 10
2012.795291323239
 20
-1769.839624685059
 30
0.0
 10
2015.725028613182
 20
-1767.093096906495
 30
0.0
 10
2016.310974163765
 20
-1764.071921714456
 30
0.0
 10
2016.603946939056
 20
-1762.561334118437
 30
0.0
 10
2016.896919714348
 20
-1761.050746522417
 30
0.0
 10
2021.291516112233
 20
-1762.4240104117
 30
0.0
 10
2025.686112510119
 20
-1763.797274300982
 30
0.0
 10
2023.342330307788
 20
-1772.036839755401
 30
0.0
 10
2021.291516112233
 20
-1773.959407412269
 30
0.0
 10
2020.266109014456
 20
-1774.920691240702
 30
0.0
 10
2019.240701916679
 20
-1775.881975069137
 30
0.0
 10
2016.310964626736
 20
-1779.672161230777
 30
0.0
 10
2014.26015996821
 20
-1779.672161230777
 30
0.0
 10
2013.234757638948
 20
-1779.672161230777
 30
0.0
 10
2012.209355309685
 20
-1779.672161230777
 30
0.0
 10
2000.783402767777
 20
-1779.672161230777
 30
0.0
 10
1989.357450225868
 20
-1779.672161230777
 30
0.0
 10
1979.454961837693
 20
-1779.672161230777
 30
0.0
 10
1979.454961837693
 20
-1775.030540371392
 30
0.0
 10
1979.454961837693
 20
-1772.7097299417
 30
0.0
 10
1979.454961837693
 20
-1770.388919512008
 30
0.0
 10
1979.454961837693
 20
-1761.600050290003
 30
0.0
 10
1979.454961837693
 20
-1752.811181067998
 30
0.0
 10
1992.931719038126
 20
-1752.811181067998
 30
0.0
 10
2006.40847623856
 20
-1752.811181067998
 30
0.0
 10
2006.40847623856
 20
-1748.389285291902
 30
0.0
 10
2006.40847623856
 20
-1743.967389515807
 30
0.0
 10
1991.437552638774
 20
-1743.967389515807
 30
0.0
 10
1976.466629038988
 20
-1743.967389515807
 30
0.0
 10
1976.466629038988
 20
-1739.875072424008
 30
0.0
 10
1976.466629038988
 20
-1735.782755332209
 30
0.0
 10
1995.802851282279
 20
-1735.782755332209
 30
0.0
 10
2015.13907352557
 20
-1735.782755332209
 30
0.0
  0
SPLINE
  5
A0
330
30
100
AcDbEntity
  8
一般
  6
Continuous
 62
     7
370
     9
100
AcDbSpline
210
0.0
220
0.0
230
1.0
 70
    11
 71
     2
 72
    52
 73
    49
 74
     0
 42
0.0000000001
 43
0.0000000001
 40
0.0
 40
0.0
 40
0.0
 40
1.0
 40
1.0
 40
2.0
 40
2.0
 40
3.0
 40
3.0
 40
4.0
 40
4.0
 40
5.0
 40
5.0
 40
6.0
 40
6.0
 40
7.0
 40
7.0
 40
8.0
 40
8.0
 40
9.0
 40
9.0
 40
10.0
 40
10.0
 40
11.0
 40
11.0
 40
12.0
 40
12.0
 40
13.0
 40
13.0
 40
14.0
 40
14.0
 40
15.0
 40
15.0
 40
16.0
 40
16.0
 40
17.0
 40
17.0
 40
18.0
 40
18.0
 40
19.0
 40
19.0
 40
20.0
 40
20.0
 40
21.0
 40
21.0
 40
22.0
 40
22.0
 40
23.0
 40
23.0
 40
24.0
 40
24.0
 40
24.0
 10
1969.435282431994
 20
-1735.782755332209
 30
0.0
 10
1969.435282431994
 20
-1748.389285291902
 30
0.0
 10
1969.435282431994
 20
-1760.995815251595
 30
0.0
 10
1954.786624593365
 20
-1760.995815251595
 30
0.0
 10
1940.137966754736
 20
-1760.995815251595
 30
0.0
 10
1940.137966754736
 20
-1764.868416200742
 30
0.0
 10
1940.137966754736
 20
-1768.741017149888
 30
0.0
 10
1940.137966754736
 20
-1771.487527047179
 30
0.0
 10
1941.602835399708
 20
-1771.487527047179
 30
0.0
 10
1942.335269722194
 20
-1771.487527047179
 30
0.0
 10
1943.06770404468
 20
-1771.487527047179
 30
0.0
 10
1950.977973746062
 20
-1771.487527047179
 30
0.0
 10
1958.888243447445
 20
-1771.487527047179
 30
0.0
 10
1965.333654040885
 20
-1771.487527047179
 30
0.0
 10
1966.212577135274
 20
-1770.663575866119
 30
0.0
 10
1966.652038682468
 20
-1770.251600275589
 30
0.0
 10
1967.091500229663
 20
-1769.839624685059
 30
0.0
 10
1968.849327344382
 20
-1768.191704441666
 30
0.0
 10
1969.728250438771
 20
-1764.621225482041
 30
0.0
 10
1970.167711985965
 20
-1762.83598600223
 30
0.0
 10
1970.60717353316
 20
-1761.050746522417
 30
0.0
 10
1974.708792387239
 20
-1762.4240104117
 30
0.0
 10
1978.810411241319
 20
-1763.797274300982
 30
0.0
 10
1977.0525841266
 20
-1769.839624685059
 30
0.0
 10
1975.587715481628
 20
-1772.036839755401
 30
0.0
 10
1974.855281159142
 20
-1773.135447290572
 30
0.0
 10
1974.122846836656
 20
-1774.234054825744
 30
0.0
 10
1971.193128620772
 20
-1779.672161230777
 30
0.0
 10
1967.091500229663
 20
-1779.672161230777
 30
0.0
 10
1965.040686034108
 20
-1779.672161230777
 30
0.0
 10
1962.989871838554
 20
-1779.672161230777
 30
0.0
 10
1952.149864847228
 20
-1779.672161230777
 30
0.0
 10
1941.309857855902
 20
-1779.672161230777
 30
0.0
 10
1931.407369467726
 20
-1779.672161230777
 30
0.0
 10
1931.407369467726
 20
-1775.030540371392
 30
0.0
 10
1931.407369467726
 20
-1772.7097299417
 30
0.0
 10
1931.407369467726
 20
-1770.388919512008
 30
0.0
 10
1931.407369467726
 20
-1761.600050290003
 30
0.0
 10
1931.407369467726
 20
-1752.811181067998
 30
0.0
 10
1946.056027306356
 20
-1752.811181067998
 30
0.0
 10
1960.704685144984
 20
-1752.811181067998
 30
0.0
 10
1960.704685144984
 20
-1748.389285291902
 30
0.0
 10
1960.704685144984
 20
-1743.967389515807
 30
0.0
 10
1945.147815994615
 20
-1743.967389515807
 30
0.0
 10
1929.590946844247
 20
-1743.967389515807
 30
0.0
 10
1929.590946844247
 20
-1739.875072424008
 30
0.0
 10
1929.590946844247
 20
-1735.782755332209
 30
0.0
 10
1949.51311463812
 20
-1735.782755332209
 30
0.0
 10
1969.435282431994
 20
-1735.782755332209
 30
0.0
  0
SPLINE
  5
A1
330
30
100
AcDbEntity
  8
一般
  6
Continuous
 62
     7
370
     9
100
AcDbSpline
210
0.0
220
0.0
230
1.0
 70
    11
 71
     2
 72
    16
 73
    13
 74
     0
 42
0.0000000001
 43
0.0000000001
 40
0.0
 40
0.0
 40
0.0
 40
1.0
 40
1.0
 40
2.0
 40
2.0
 40
3.0
 40
3.0
 40
4.0
 40
4.0
 40
5.0
 40
5.0
 40
6.0
 40
6.0
 40
6.0
 10
1987.59960403709
 20
-1820.375624946748
 30
0.0
 10
2001.662316325136
 20
-1828.615190401168
 30
0.0
 10
2012.795291323239
 20
-1831.63635665257
 30
0.0
 10
2018.36177882229
 20
-1833.146939778272
 30
0.0
 10
2023.928266321341
 20
-1834.657522903972
 30
0.0
 10
2020.998538568428
 20
-1838.228001863597
 30
0.0
 10
2018.068810815513
 20
-1841.798480823221
 30
0.0
 10
1996.974751920474
 20
-1835.756148320417
 30
0.0
 10
1989.064482219092
 20
-1830.81240547151
 30
0.0
 10
1985.1093473684
 20
-1828.340534047057
 30
0.0
 10
1981.154212517709
 20
-1825.868662622604
 30
0.0
 10
1984.3769082774
 20
-1823.122143784676
 30
0.0
 10
1987.59960403709
 20
-1820.375624946748
 30
0.0
  0
SPLINE
  5
A2
330
30
100
AcDbEntity
  8
一般
  6
Continuous
 62
     7
370
     9
100
AcDbSpline
210
0.0
220
0.0
230
1.0
 70
    11
 71
     2
 72
    16
 73
    13
 74
     0
 42
0.0000000001
 43
0.0000000001
 40
0.0
 40
0.0
 40
0.0
 40
1.0
 40
1.0
 40
2.0
 40
2.0
 40
3.0
 40
3.0
 40
4.0
 40
4.0
 40
5.0
 40
5.0
 40
6.0
 40
6.0
 40
6.0
 10
1904.98121464571
 20
-1735.782755332209
 30
0.0
 10
1917.286080744978
 20
-1746.219535856971
 30
0.0
 10
1922.266622693447
 20
-1751.437926119352
 30
0.0
 10
1924.75689366768
 20
-1754.047121250543
 30
0.0
 10
1927.247164641915
 20
-1756.656316381733
 30
0.0
 10
1924.024459345195
 20
-1759.677491573772
 30
0.0
 10
1920.801754048475
 20
-1762.69866676581
 30
0.0
 10
1910.254715063926
 20
-1751.163278705877
 30
0.0
 10
1904.395259558098
 20
-1746.494192211082
 30
0.0
 10
1901.465531805184
 20
-1744.159648963685
 30
0.0
 10
1898.535804052269
 20
-1741.825105716287
 30
0.0
 10
1901.75850934899
 20
-1738.803930524248
 30
0.0
 10
1904.98121464571
 20
-1735.782755332209
 30
0.0
  0
SPLINE
  5
A3
330
30
100
AcDbEntity
  8
一般
  6
Continuous
 62
     7
370
     9
100
AcDbSpline
210
0.0
220
0.0
230
1.0
 70
    11
 71
     2
 72
    52
 73
    49
 74
     0
 42
0.0000000001
 43
0.0000000001
 40
0.0
 40
0.0
 40
0.0
 40
1.0
 40
1.0
 40
2.0
 40
2.0
 40
3.0
 40
3.0
 40
4.0
 40
4.0
 40
5.0
 40
5.0
 40
6.0
 40
6.0
 40
7.0
 40
7.0
 40
8.0
 40
8.0
 40
9.0
 40
9.0
 40
10.0
 40
10.0
 40
11.0
 40
11.0
 40
12.0
 40
12.0
 40
13.0
 40
13.0
 40
14.0
 40
14.0
 40
15.0
 40
15.0
 40
16.0
 40
16.0
 40
17.0
 40
17.0
 40
18.0
 40
18.0
 40
19.0
 40
19.0
 40
20.0
 40
20.0
 40
21.0
 40
21.0
 40
22.0
 40
22.0
 40
23.0
 40
23.0
 40
24.0
 40
24.0
 40
24.0
 10
1963.575826926166
 20
-1781.375012744992
 30
0.0
 10
1965.333654040885
 20
-1782.473620280163
 30
0.0
 10
1963.575817389136
 20
-1783.572227815334
 30
0.0
 10
1962.696899063263
 20
-1784.12153158292
 30
0.0
 10
1961.817980737388
 20
-1784.670835350505
 30
0.0
 10
1961.817980737388
 20
-1788.515970664241
 30
0.0
 10
1961.817980737388
 20
-1792.361105977976
 30
0.0
 10
1972.394307939288
 20
-1792.361105977976
 30
0.0
 10
1982.970635141189
 20
-1792.361105977976
 30
0.0
 10
1982.970635141189
 20
-1786.593403007373
 30
0.0
 10
1982.970635141189
 20
-1780.82570003677
 30
0.0
 10
1988.214856879083
 20
-1781.375003804356
 30
0.0
 10
1993.459078616977
 20
-1781.924307571941
 30
0.0
 10
1995.216905731696
 20
-1783.022932988385
 30
0.0
 10
1993.459069079948
 20
-1784.121540523556
 30
0.0
 10
1992.580150754073
 20
-1784.670844291142
 30
0.0
 10
1991.701232428199
 20
-1785.220148058727
 30
0.0
 10
1991.701232428199
 20
-1788.790627018352
 30
0.0
 10
1991.701232428199
 20
-1792.361105977976
 30
0.0
 10
2004.006098527467
 20
-1792.361105977976
 30
0.0
 10
2016.310964626736
 20
-1792.361105977976
 30
0.0
 10
2016.310964626736
 20
-1796.453423069775
 30
0.0
 10
2016.310964626736
 20
-1800.545740161574
 30
0.0
 10
2004.006098527467
 20
-1800.545740161574
 30
0.0
 10
1991.701232428199
 20
-1800.545740161574
 30
0.0
 10
1991.701232428199
 20
-1806.06624347284
 30
0.0
 10
1991.701232428199
 20
-1811.586746784106
 30
0.0
 10
2007.81474937477
 20
-1811.586746784106
 30
0.0
 10
2023.928266321341
 20
-1811.586746784106
 30
0.0
 10
2023.928266321341
 20
-1815.679063875905
 30
0.0
 10
2023.928266321341
 20
-1819.771380967704
 30
0.0
 10
1974.708792387239
 20
-1819.771380967704
 30
0.0
 10
1925.489318453137
 20
-1819.771380967704
 30
0.0
 10
1925.489318453137
 20
-1815.679063875905
 30
0.0
 10
1925.489318453137
 20
-1811.586746784106
 30
0.0
 10
1939.288350951758
 20
-1811.586746784106
 30
0.0
 10
1953.087383450378
 20
-1811.586746784106
 30
0.0
 10
1953.087383450378
 20
-1806.06624347284
 30
0.0
 10
1953.087383450378
 20
-1800.545740161574
 30
0.0
 10
1942.511056248478
 20
-1800.545740161574
 30
0.0
 10
1931.934729046577
 20
-1800.545740161574
 30
0.0
 10
1931.934729046577
 20
-1796.453423069775
 30
0.0
 10
1931.934729046577
 20
-1792.361105977976
 30
0.0
 10
1942.511056248478
 20
-1792.361105977976
 30
0.0
 10
1953.087383450378
 20
-1792.361105977976
 30
0.0
 10
1953.087383450378
 20
-1786.318755593899
 30
0.0
 10
1953.087383450378
 20
-1780.276405209821
 30
0.0
 10
1958.331605188272
 20
-1780.825708977407
 30
0.0
 10
1963.575826926166
 20
-1781.375012744992
 30
0.0
  0
LWPOLYLINE
  5
A4
330
30
100
AcDbEntity
  8
一般
  6
Continuous
 62
     7
370
     9
100
AcDbPolyline
 90
        4
 70
   129
 43
0.0
 10
1961.817980737388
 20
-1811.586746784106
 10
1982.970635141189
 20
-1811.586746784106
 10
1982.970635141189
 20
-1800.545740161574
 10
1961.817980737388
 20
-1800.545740161574
  0
SPLINE
  5
A5
330
30
100
AcDbEntity
  8
一般
  6
Continuous
 62
     7
370
     9
100
AcDbSpline
210
0.0
220
0.0
230
1.0
 70
    11
 71
     2
 72
    58
 73
    55
 74
     0
 42
0.0000000001
 43
0.0000000001
 40
0.0
 40
0.0
 40
0.0
 40
1.0
 40
1.0
 40
2.0
 40
2.0
 40
3.0
 40
3.0
 40
4.0
 40
4.0
 40
5.0
 40
5.0
 40
6.0
 40
6.0
 40
7.0
 40
7.0
 40
8.0
 40
8.0
 40
9.0
 40
9.0
 40
10.0
 40
10.0
 40
11.0
 40
11.0
 40
12.0
 40
12.0
 40
13.0
 40
13.0
 40
14.0
 40
14.0
 40
15.0
 40
15.0
 40
16.0
 40
16.0
 40
17.0
 40
17.0
 40
18.0
 40
18.0
 40
19.0
 40
19.0
 40
20.0
 40
20.0
 40
21.0
 40
21.0
 40
22.0
 40
22.0
 40
23.0
 40
23.0
 40
24.0
 40
24.0
 40
25.0
 40
25.0
 40
26.0
 40
26.0
 40
27.0
 40
27.0
 40
27.0
 10
1920.801754048475
 20
-1788.51597066424
 30
0.0
 10
1920.801754048475
 20
-1810.488139248935
 30
0.0
 10
1920.801754048475
 20
-1832.46030783363
 30
0.0
 10
1924.317427351972
 20
-1837.404050682537
 30
0.0
 10
1928.41905574308
 20
-1839.051961985293
 30
0.0
 10
1930.469869938636
 20
-1839.875917636672
 30
0.0
 10
1932.52068413419
 20
-1840.69987328805
 30
0.0
 10
1929.883924388052
 20
-1837.404050682537
 30
0.0
 10
1927.247164641915
 20
-1834.108228077024
 30
0.0
 10
1947.169332435789
 20
-1828.615190401168
 30
0.0
 10
1953.907711036006
 20
-1824.770055087432
 30
0.0
 10
1957.276900336115
 20
-1822.847487430565
 30
0.0
 10
1960.646089636223
 20
-1820.924919773697
 30
0.0
 10
1963.868794932943
 20
-1823.671447552261
 30
0.0
 10
1967.091500229663
 20
-1826.417975330826
 30
0.0
 10
1950.099050651673
 20
-1836.854755855588
 30
0.0
 10
1941.895812943514
 20
-1839.05197092593
 30
0.0
 10
1937.794194089435
 20
-1840.150578461101
 30
0.0
 10
1933.692575235356
 20
-1841.249185996272
 30
0.0
 10
1940.137966754736
 20
-1843.995713774836
 30
0.0
 10
1945.118508703205
 20
-1844.545017542422
 30
0.0
 10
1947.608779677439
 20
-1844.819669426214
 30
0.0
 10
1950.099050651673
 20
-1845.094321310007
 30
0.0
 10
1960.06013454861
 20
-1846.192928845178
 30
0.0
 10
1963.868785395913
 20
-1846.192928845178
 30
0.0
 10
1965.773110819565
 20
-1846.192928845178
 30
0.0
 10
1967.677436243216
 20
-1846.192928845178
 30
0.0
 10
1998.14664302164
 20
-1846.192928845178
 30
0.0
 10
2028.615849800063
 20
-1846.192928845178
 30
0.0
 10
2027.150981155091
 20
-1850.871170551777
 30
0.0
 10
2025.686112510119
 20
-1855.549412258377
 30
0.0
 10
1997.26771992725
 20
-1855.549412258377
 30
0.0
 10
1968.849327344382
 20
-1855.549412258377
 30
0.0
 10
1951.270960826898
 20
-1855.549412258377
 30
0.0
 10
1943.360681588487
 20
-1852.793729268008
 30
0.0
 10
1939.40554196928
 20
-1851.415887772825
 30
0.0
 10
1935.450402350074
 20
-1850.03804627764
 30
0.0
 10
1925.489318453137
 20
-1847.291536380349
 30
0.0
 10
1920.801754048475
 20
-1842.897097299029
 30
0.0
 10
1918.457971846144
 20
-1840.699877758368
 30
0.0
 10
1916.114189643812
 20
-1838.502658217708
 30
0.0
 10
1907.617964854818
 20
-1846.467576258653
 30
0.0
 10
1899.121740065823
 20
-1854.432494299598
 30
0.0
 10
1895.313089218521
 20
-1849.488751450692
 30
0.0
 10
1891.504438371217
 20
-1844.545008601785
 30
0.0
 10
1901.162788343251
 20
-1838.777314571819
 30
0.0
 10
1910.821138315284
 20
-1833.009620541852
 30
0.0
 10
1910.821138315284
 20
-1815.441037309645
 30
0.0
 10
1910.821138315284
 20
-1797.872454077439
 30
0.0
 10
1901.748733893834
 20
-1797.872454077439
 30
0.0
 10
1892.676329472383
 20
-1797.872454077439
 30
0.0
 10
1892.676329472383
 20
-1793.194212370839
 30
0.0
 10
1892.676329472383
 20
-1788.51597066424
 30
0.0
 10
1906.739041760428
 20
-1788.51597066424
 30
0.0
 10
1920.801754048475
 20
-1788.51597066424
 30
0.0
  0
SPLINE
  5
A6
330
30
100
AcDbEntity
  8
一般
  6
Continuous
 62
     7
370
     9
100
AcDbSpline
210
0.0
220
0.0
230
1.0
 70
    11
 71
     2
 72
    54
 73
    51
 74
     0
 42
0.0000000001
 43
0.0000000001
 40
0.0
 40
0.0
 40
0.0
 40
1.0
 40
1.0
 40
2.0
 40
2.0
 40
3.0
 40
3.0
 40
4.0
 40
4.0
 40
5.0
 40
5.0
 40
6.0
 40
6.0
 40
7.0
 40
7.0
 40
8.0
 40
8.0
 40
9.0
 40
9.0
 40
10.0
 40
10.0
 40
11.0
 40
11.0
 40
12.0
 40
12.0
 40
13.0
 40
13.0
 40
14.0
 40
14.0
 40
15.0
 40
15.0
 40
16.0
 40
16.0
 40
17.0
 40
17.0
 40
18.0
 40
18.0
 40
19.0
 40
19.0
 40
20.0
 40
20.0
 40
21.0
 40
21.0
 40
22.0
 40
22.0
 40
23.0
 40
23.0
 40
24.0
 40
24.0
 40
25.0
 40
25.0
 40
25.0
 10
2166.329714626736
 20
-1739.627890645945
 30
0.0
 10
2166.329714626736
 20
-1792.635753391451
 30
0.0
 10
2166.329714626736
 20
-1845.643616136956
 30
0.0
 10
2166.329714626736
 20
-1855.000099550155
 30
0.0
 10
2162.228095772656
 20
-1855.000099550155
 30
0.0
 10
2160.177286345616
 20
-1855.000099550155
 30
0.0
 10
2158.126476918576
 20
-1855.000099550155
 30
0.0
 10
2150.50917522397
 20
-1855.000099550155
 30
0.0
 10
2142.891873529364
 20
-1855.000099550155
 30
0.0
 10
2142.012959972006
 20
-1850.321857843556
 30
0.0
 10
2141.134046414645
 20
-1845.643616136956
 30
0.0
 10
2148.458370565445
 20
-1845.643616136956
 30
0.0
 10
2155.782694716245
 20
-1845.643616136956
 30
0.0
 10
2157.599117339725
 20
-1845.643616136956
 30
0.0
 10
2157.599117339725
 20
-1844.545008601785
 30
0.0
 10
2157.599117339725
 20
-1843.9957048342
 30
0.0
 10
2157.599117339725
 20
-1843.446401066614
 30
0.0
 10
2157.599117339725
 20
-1826.939804522363
 30
0.0
 10
2157.599117339725
 20
-1810.433207978113
 30
0.0
 10
2136.768738234112
 20
-1810.433207978113
 30
0.0
 10
2115.938359128497
 20
-1810.433207978113
 30
0.0
 10
2115.938359128497
 20
-1831.059587249573
 30
0.0
 10
2115.938359128497
 20
-1851.685966521034
 30
0.0
 10
2111.573060484992
 20
-1851.685966521034
 30
0.0
 10
2107.207761841487
 20
-1851.685966521034
 30
0.0
 10
2107.207761841487
 20
-1831.059587249573
 30
0.0
 10
2107.207761841487
 20
-1810.433207978113
 30
0.0
 10
2088.135209850592
 20
-1810.433207978113
 30
0.0
 10
2069.062657859697
 20
-1810.433207978113
 30
0.0
 10
2069.062657859697
 20
-1825.740489657352
 30
0.0
 10
2066.718875657366
 20
-1830.748318988884
 30
0.0
 10
2065.5469845562
 20
-1833.25223365465
 30
0.0
 10
2064.375093455035
 20
-1835.756148320417
 30
0.0
 10
2060.273465063925
 20
-1845.094321310007
 30
0.0
 10
2054.414009558097
 20
-1850.312711572389
 30
0.0
 10
2051.484281805183
 20
-1852.921906703579
 30
0.0
 10
2048.55455405227
 20
-1855.531101834769
 30
0.0
 10
2045.038871211743
 20
-1852.23527028862
 30
0.0
 10
2041.523188371217
 20
-1848.939438742469
 30
0.0
 10
2052.070227355766
 20
-1841.249185996272
 30
0.0
 10
2054.414009558097
 20
-1836.030795733891
 30
0.0
 10
2055.585900659264
 20
-1833.421600602701
 30
0.0
 10
2056.757791760429
 20
-1830.81240547151
 30
0.0
 10
2060.332060572687
 20
-1821.47423248192
 30
0.0
 10
2060.332060572687
 20
-1815.157234684368
 30
0.0
 10
2060.332060572687
 20
-1811.998735785592
 30
0.0
 10
2060.332060572687
 20
-1808.840236886815
 30
0.0
 10
2060.332060572687
 20
-1774.23406376638
 30
0.0
 10
2060.332060572687
 20
-1739.627890645945
 30
0.0
 10
2113.330887599711
 20
-1739.627890645945
 30
0.0
 10
2166.329714626736
 20
-1739.627890645945
 30
0.0
  0
LWPOLYLINE
  5
A7
330
30
100
AcDbEntity
  8
一般
  6
Continuous
 62
     7
370
     9
100
AcDbPolyline
 90
        4
 70
   129
 43
0.0
 10
2115.938359128497
 20
-1770.93823222023
 10
2157.599117339725
 20
-1770.93823222023
 10
2157.599117339725
 20
-1747.812524829542
 10
2115.938359128497
 20
-1747.812524829542
  0
LWPOLYLINE
  5
A8
330
30
100
AcDbEntity
  8
一般
  6
Continuous
 62
     7
370
     9
100
AcDbPolyline
 90
        4
 70
   129
 43
0.0
 10
2115.938359128497
 20
-1802.248573794516
 10
2157.599117339725
 20
-1802.248573794516
 10
2157.599117339725
 20
-1779.122866403828
 10
2115.938359128497
 20
-1779.122866403828
  0
LWPOLYLINE
  5
A9
330
30
100
AcDbEntity
  8
一般
  6
Continuous
 62
     7
370
     9
100
AcDbPolyline
 90
        4
 70
   129
 43
0.0
 10
2069.062657859697
 20
-1802.248573794516
 10
2107.207761841487
 20
-1802.248573794516
 10
2107.207761841487
 20
-1779.122866403828
 10
2069.062657859697
 20
-1779.122866403828
  0
LWPOLYLINE
  5
AA
330
30
100
AcDbEntity
  8
一般
  6
Continuous
 62
     7
370
     9
100
AcDbPolyline
 90
        4
 70
   129
 43
0.0
 10
2069.062657859697
 20
-1770.93823222023
 10
2107.207761841487
 20
-1770.93823222023
 10
2107.207761841487
 20
-1747.812524829542
 10
2069.062657859697
 20
-1747.812524829542
  0
SPLINE
  5
AB
330
30
100
AcDbEntity
  8
一般
  6
Continuous
 62
     7
370
     9
100
AcDbSpline
210
0.0
220
0.0
230
1.0
 70
    11
 71
     2
 72
    40
 73
    37
 74
     0
 42
0.0000000001
 43
0.0000000001
 40
0.0
 40
0.0
 40
0.0
 40
1.0
 40
1.0
 40
2.0
 40
2.0
 40
3.0
 40
3.0
 40
4.0
 40
4.0
 40
5.0
 40
5.0
 40
6.0
 40
6.0
 40
7.0
 40
7.0
 40
8.0
 40
8.0
 40
9.0
 40
9.0
 40
10.0
 40
10.0
 40
11.0
 40
11.0
 40
12.0
 40
12.0
 40
13.0
 40
13.0
 40
14.0
 40
14.0
 40
15.0
 40
15.0
 40
16.0
 40
16.0
 40
17.0
 40
17.0
 40
18.0
 40
18.0
 40
18.0
 10
2196.815457863492
 20
-1851.795829062678
 30
0.0
 10
2216.151689643813
 20
-1837.513913224181
 30
0.0
 10
2219.667362947309
 20
-1830.372955304932
 30
0.0
 10
2221.425199599058
 20
-1826.802476345308
 30
0.0
 10
2223.183036250806
 20
-1823.231997385684
 30
0.0
 10
2230.2143828578
 20
-1808.950081547187
 30
0.0
 10
2230.2143828578
 20
-1800.985172446878
 30
0.0
 10
2230.2143828578
 20
-1797.002717896724
 30
0.0
 10
2230.2143828578
 20
-1793.02026334657
 30
0.0
 10
2230.2143828578
 20
-1777.090445145952
 30
0.0
 10
2226.698709554304
 20
-1769.949487226704
 30
0.0
 10
2224.940872902555
 20
-1766.379008267079
 30
0.0
 10
2223.183036250806
 20
-1762.808529307455
 30
0.0
 10
2216.151689643813
 20
-1748.526613468958
 30
0.0
 10
2206.483573753652
 20
-1741.660311903821
 30
0.0
 10
2201.649515808572
 20
-1738.227161121252
 30
0.0
 10
2196.815457863492
 20
-1734.794010338683
 30
0.0
 10
2199.159240065824
 20
-1732.047482560118
 30
0.0
 10
2201.503022268154
 20
-1729.300954781554
 30
0.0
 10
2220.839254048476
 20
-1741.934968257931
 30
0.0
 10
2225.526818453137
 20
-1750.174533712351
 30
0.0
 10
2227.870600655469
 20
-1754.294316439561
 30
0.0
 10
2230.2143828578
 20
-1758.41409916677
 30
0.0
 10
2238.417639640018
 20
-1772.695997123995
 30
0.0
 10
2238.417639640018
 20
-1782.858130235282
 30
0.0
 10
2238.417639640018
 20
-1787.939196790926
 30
0.0
 10
2238.417639640018
 20
-1793.02026334657
 30
0.0
 10
2238.417639640018
 20
-1813.344529569144
 30
0.0
 10
2234.316011248909
 20
-1820.485478547756
 30
0.0
 10
2232.265197053354
 20
-1824.055953037062
 30
0.0
 10
2230.2143828578
 20
-1827.626427526368
 30
0.0
 10
2220.839254048476
 20
-1844.105558435208
 30
0.0
 10
2211.171138158315
 20
-1850.697212586871
 30
0.0
 10
2206.337080213235
 20
-1853.993039662702
 30
0.0
 10
2201.503022268154
 20
-1857.288866738533
 30
0.0
 10
2199.159240065824
 20
-1854.542347900606
 30
0.0
 10
2196.815457863492
 20
-1851.795829062678
 30
0.0
  0
SPLINE
  5
AC
330
30
100
AcDbEntity
  8
一般
  6
Continuous
 62
     7
370
     9
100
AcDbSpline
210
0.0
220
0.0
230
1.0
 70
    11
 71
     2
 72
    74
 73
    71
 74
     0
 42
0.0000000001
 43
0.0000000001
 40
0.0
 40
0.0
 40
0.0
 40
1.0
 40
1.0
 40
2.0
 40
2.0
 40
3.0
 40
3.0
 40
4.0
 40
4.0
 40
5.0
 40
5.0
 40
6.0
 40
6.0
 40
7.0
 40
7.0
 40
8.0
 40
8.0
 40
9.0
 40
9.0
 40
10.0
 40
10.0
 40
11.0
 40
11.0
 40
12.0
 40
12.0
 40
13.0
 40
13.0
 40
14.0
 40
14.0
 40
15.0
 40
15.0
 40
16.0
 40
16.0
 40
17.0
 40
17.0
 40
18.0
 40
18.0
 40
19.0
 40
19.0
 40
20.0
 40
20.0
 40
21.0
 40
21.0
 40
22.0
 40
22.0
 40
23.0
 40
23.0
 40
24.0
 40
24.0
 40
25.0
 40
25.0
 40
26.0
 40
26.0
 40
27.0
 40
27.0
 40
28.0
 40
28.0
 40
29.0
 40
29.0
 40
30.0
 40
30.0
 40
31.0
 40
31.0
 40
32.0
 40
32.0
 40
33.0
 40
33.0
 40
34.0
 40
34.0
 40
35.0
 40
35.0
 40
35.0
 10
1102.774072877691
 20
-1873.618171998089
 30
0.0
 10
1106.8757012688
 20
-1875.815387068432
 30
0.0
 10
1103.945973515886
 20
-1876.639347190129
 30
0.0
 10
1102.481109639429
 20
-1877.051327250976
 30
0.0
 10
1101.016245762972
 20
-1877.463307311824
 30
0.0
 10
1093.984880081919
 20
-1890.097302906928
 30
0.0
 10
1089.004338133451
 20
-1896.414300704481
 30
0.0
 10
1086.514067159217
 20
-1899.572799603257
 30
0.0
 10
1084.023796184983
 20
-1902.731298502033
 30
0.0
 10
1089.004338133451
 20
-1906.301777461657
 30
0.0
 10
1093.984880081919
 20
-1909.872256421281
 30
0.0
 10
1101.016245762972
 20
-1900.534083431691
 30
0.0
 10
1104.238951059692
 20
-1894.49174198825
 30
0.0
 10
1105.850303708052
 20
-1891.470571266529
 30
0.0
 10
1107.461656356412
 20
-1888.449400544808
 30
0.0
 10
1111.270297666685
 20
-1890.097311847565
 30
0.0
 10
1115.078938976959
 20
-1891.745223150322
 30
0.0
 10
1119.180567368068
 20
-1893.942438220664
 30
0.0
 10
1116.250839615154
 20
-1894.766389401724
 30
0.0
 10
1114.785975738697
 20
-1895.178364992254
 30
0.0
 10
1113.32111186224
 20
-1895.590340582784
 30
0.0
 10
1102.774072877691
 20
-1912.618784199845
 30
0.0
 10
1095.742726270697
 20
-1921.132997067739
 30
0.0
 10
1092.227052967201
 20
-1925.390103501687
 30
0.0
 10
1088.711379663704
 20
-1929.647209935634
 30
0.0
 10
1098.965431567418
 20
-1928.548602400463
 30
0.0
 10
1109.219483471131
 20
-1927.449994865292
 30
0.0
 10
1106.582723724994
 20
-1923.055564724607
 30
0.0
 10
1103.945963978856
 20
-1918.661134583923
 30
0.0
 10
1107.754614826159
 20
-1917.013223281167
 30
0.0
 10
1111.563265673462
 20
-1915.36531197841
 30
0.0
 10
1117.129753172514
 20
-1925.802092503172
 30
0.0
 10
1122.696240671565
 20
-1936.238873027934
 30
0.0
 10
1118.887589824262
 20
-1938.161431744164
 30
0.0
 10
1115.078938976959
 20
-1940.083990460396
 30
0.0
 10
1113.614079869017
 20
-1937.062824208994
 30
0.0
 10
1112.149220761075
 20
-1934.041657957592
 30
0.0
 10
1105.703810167634
 20
-1935.140265492762
 30
0.0
 10
1099.258399574194
 20
-1936.238873027934
 30
0.0
 10
1099.258399574194
 20
-1966.999910834634
 30
0.0
 10
1099.258399574194
 20
-1997.760948641333
 30
0.0
 10
1094.893100930689
 20
-1997.760948641333
 30
0.0
 10
1090.527802287184
 20
-1997.760948641333
 30
0.0
 10
1090.527802287184
 20
-1967.274558248108
 30
0.0
 10
1090.527802287184
 20
-1936.788167854883
 30
0.0
 10
1082.295257287615
 20
-1937.886775390054
 30
0.0
 10
1074.062712288045
 20
-1938.985382925224
 30
0.0
 10
1071.718930085714
 20
-1943.929125774131
 30
0.0
 10
1070.840016528355
 20
-1942.006558117264
 30
0.0
 10
1070.400559749675
 20
-1941.045274288829
 30
0.0
 10
1069.961102970995
 20
-1940.083990460396
 30
0.0
 10
1068.496234326024
 20
-1935.4149039656
 30
0.0
 10
1067.031365681052
 20
-1930.745817470805
 30
0.0
 10
1072.89082118688
 20
-1930.471170057331
 30
0.0
 10
1078.750276692708
 20
-1930.196522643856
 30
0.0
 10
1084.023796184983
 20
-1923.330221078719
 30
0.0
 10
1089.297315677257
 20
-1916.463919513581
 30
0.0
 10
1080.508122881486
 20
-1908.77364888611
 30
0.0
 10
1074.648657838628
 20
-1905.203169926486
 30
0.0
 10
1071.7189253172
 20
-1903.417930446674
 30
0.0
 10
1068.789192795771
 20
-1901.632690966862
 30
0.0
 10
1071.132984535132
 20
-1898.336868361348
 30
0.0
 10
1073.476776274492
 20
-1895.041045755835
 30
0.0
 10
1076.1135264836
 20
-1896.688957058591
 30
0.0
 10
1078.750276692708
 20
-1898.336868361348
 30
0.0
 10
1088.711379663704
 20
-1884.604265231073
 30
0.0
 10
1091.641107416618
 20
-1877.737963665936
 30
0.0
 10
1093.105971293075
 20
-1874.304812883367
 30
0.0
 10
1094.570835169532
 20
-1870.871662100798
 30
0.0
 10
1098.672454023611
 20
-1872.244917049444
 30
0.0
 10
1102.774072877691
 20
-1873.618171998089
 30
0.0
  0
SPLINE
  5
AD
330
30
100
AcDbEntity
  8
一般
  6
Continuous
 62
     7
370
     9
100
AcDbSpline
210
0.0
220
0.0
230
1.0
 70
    11
 71
     2
 72
    32
 73
    29
 74
     0
 42
0.0000000001
 43
0.0000000001
 40
0.0
 40
0.0
 40
0.0
 40
1.0
 40
1.0
 40
2.0
 40
2.0
 40
3.0
 40
3.0
 40
4.0
 40
4.0
 40
5.0
 40
5.0
 40
6.0
 40
6.0
 40
7.0
 40
7.0
 40
8.0
 40
8.0
 40
9.0
 40
9.0
 40
10.0
 40
10.0
 40
11.0
 40
11.0
 40
12.0
 40
12.0
 40
13.0
 40
13.0
 40
14.0
 40
14.0
 40
14.0
 10
1166.056268636868
 20
-1871.970269635969
 30
0.0
 10
1167.814095751587
 20
-1873.06887717114
 30
0.0
 10
1166.056259099839
 20
-1874.167484706312
 30
0.0
 10
1165.177340773965
 20
-1874.716788473897
 30
0.0
 10
1164.298422448091
 20
-1875.266092241482
 30
0.0
 10
1164.298422448091
 20
-1881.308433684924
 30
0.0
 10
1164.298422448091
 20
-1887.350775128365
 30
0.0
 10
1182.462753590216
 20
-1887.350775128365
 30
0.0
 10
1200.627084732342
 20
-1887.350775128365
 30
0.0
 10
1200.627084732342
 20
-1897.787564593763
 30
0.0
 10
1200.627084732342
 20
-1908.224354059161
 30
0.0
 10
1196.261786088836
 20
-1908.224354059161
 30
0.0
 10
1191.896487445331
 20
-1908.224354059161
 30
0.0
 10
1191.896487445331
 20
-1901.879881685561
 30
0.0
 10
1191.896487445331
 20
-1895.535409311962
 30
0.0
 10
1159.933123804585
 20
-1895.535409311962
 30
0.0
 10
1127.969760163839
 20
-1895.535409311962
 30
0.0
 10
1127.969760163839
 20
-1903.527792988318
 30
0.0
 10
1127.969760163839
 20
-1911.520176664675
 30
0.0
 10
1123.604461520334
 20
-1911.520176664675
 30
0.0
 10
1119.239162876829
 20
-1911.520176664675
 30
0.0
 10
1119.239162876829
 20
-1899.43547589652
 30
0.0
 10
1119.239162876829
 20
-1887.350775128365
 30
0.0
 10
1137.403494018955
 20
-1887.350775128365
 30
0.0
 10
1155.56782516108
 20
-1887.350775128365
 30
0.0
 10
1155.56782516108
 20
-1879.111218614582
 30
0.0
 10
1155.56782516108
 20
-1870.871662100798
 30
0.0
 10
1160.812046898974
 20
-1871.420965868384
 30
0.0
 10
1166.056268636868
 20
-1871.970269635969
 30
0.0
  0
SPLINE
  5
AE
330
30
100
AcDbEntity
  8
一般
  6
Continuous
 62
     7
370
     9
100
AcDbSpline
210
0.0
220
0.0
230
1.0
 70
    11
 71
     2
 72
    30
 73
    27
 74
     0
 42
0.0000000001
 43
0.0000000001
 40
0.0
 40
0.0
 40
0.0
 40
1.0
 40
1.0
 40
2.0
 40
2.0
 40
3.0
 40
3.0
 40
4.0
 40
4.0
 40
5.0
 40
5.0
 40
6.0
 40
6.0
 40
7.0
 40
7.0
 40
8.0
 40
8.0
 40
9.0
 40
9.0
 40
10.0
 40
10.0
 40
11.0
 40
11.0
 40
12.0
 40
12.0
 40
13.0
 40
13.0
 40
13.0
 10
1144.376254654216
 20
-1901.632690966862
 30
0.0
 10
1147.891927957713
 20
-1902.731298502033
 30
0.0
 10
1145.548145755382
 20
-1903.55525862373
 30
0.0
 10
1144.376254654216
 20
-1903.967238684578
 30
0.0
 10
1143.204363553051
 20
-1904.379218745426
 30
0.0
 10
1140.274626263107
 20
-1916.463919513581
 30
0.0
 10
1138.809767155165
 20
-1920.858349654265
 30
0.0
 10
1138.077337601194
 20
-1923.055564724607
 30
0.0
 10
1137.344908047223
 20
-1925.25277979495
 30
0.0
 10
1137.344908047223
 20
-1961.506864218142
 30
0.0
 10
1137.344908047223
 20
-1997.760948641333
 30
0.0
 10
1132.979609403718
 20
-1997.760948641333
 30
0.0
 10
1128.614310760213
 20
-1997.760948641333
 30
0.0
 10
1128.614310760213
 20
-1970.021086026672
 30
0.0
 10
1128.614310760213
 20
-1942.281223412011
 30
0.0
 10
1125.313468581448
 20
-1951.07008369338
 30
0.0
 10
1122.832963525341
 20
-1954.091258885418
 30
0.0
 10
1121.592710997287
 20
-1955.601846481438
 30
0.0
 10
1120.352458469234
 20
-1957.112434077457
 30
0.0
 10
1117.715698723096
 20
-1954.091258885418
 30
0.0
 10
1115.078938976959
 20
-1951.07008369338
 30
0.0
 10
1130.313542366171
 20
-1932.393737714198
 30
0.0
 10
1133.243279656114
 20
-1915.914606805359
 30
0.0
 10
1134.708148301085
 20
-1907.675041350939
 30
0.0
 10
1136.173016946057
 20
-1899.43547589652
 30
0.0
 10
1140.274635800137
 20
-1900.534083431691
 30
0.0
 10
1144.376254654216
 20
-1901.632690966862
 30
0.0
  0
SPLINE
  5
AF
330
30
100
AcDbEntity
  8
一般
  6
Continuous
 62
     7
370
     9
100
AcDbSpline
210
0.0
220
0.0
230
1.0
 70
    11
 71
     2
 72
    40
 73
    37
 74
     0
 42
0.0000000001
 43
0.0000000001
 40
0.0
 40
0.0
 40
0.0
 40
1.0
 40
1.0
 40
2.0
 40
2.0
 40
3.0
 40
3.0
 40
4.0
 40
4.0
 40
5.0
 40
5.0
 40
6.0
 40
6.0
 40
7.0
 40
7.0
 40
8.0
 40
8.0
 40
9.0
 40
9.0
 40
10.0
 40
10.0
 40
11.0
 40
11.0
 40
12.0
 40
12.0
 40
13.0
 40
13.0
 40
14.0
 40
14.0
 40
15.0
 40
15.0
 40
16.0
 40
16.0
 40
17.0
 40
17.0
 40
18.0
 40
18.0
 40
18.0
 10
1202.970866934673
 20
-1910.970863956452
 30
0.0
 10
1202.970866934673
 20
-1915.063181048251
 30
0.0
 10
1202.970866934673
 20
-1919.15549814005
 30
0.0
 10
1190.373023291598
 20
-1919.15549814005
 30
0.0
 10
1177.775179648524
 20
-1919.15549814005
 30
0.0
 10
1176.017352533805
 20
-1927.376753170863
 30
0.0
 10
1174.552483888834
 20
-1930.709205564227
 30
0.0
 10
1173.820049566348
 20
-1932.375431760909
 30
0.0
 10
1173.087615243862
 20
-1934.041657957592
 30
0.0
 10
1185.099513336353
 20
-1934.041657957592
 30
0.0
 10
1197.111411428845
 20
-1934.041657957592
 30
0.0
 10
1197.111411428845
 20
-1965.351999531877
 30
0.0
 10
1197.111411428845
 20
-1996.662341106162
 30
0.0
 10
1192.74611278534
 20
-1996.662341106162
 30
0.0
 10
1188.380814141834
 20
-1996.662341106162
 30
0.0
 10
1188.380814141834
 20
-1994.71231675452
 30
0.0
 10
1188.380814141834
 20
-1992.762292402878
 30
0.0
 10
1172.237999440883
 20
-1992.762292402878
 30
0.0
 10
1156.095184739931
 20
-1992.762292402878
 30
0.0
 10
1156.095184739931
 20
-1995.261620522106
 30
0.0
 10
1156.095184739931
 20
-1997.760948641333
 30
0.0
 10
1151.729886096426
 20
-1997.760948641333
 30
0.0
 10
1147.364587452921
 20
-1997.760948641333
 30
0.0
 10
1147.364587452921
 20
-1965.901303299462
 30
0.0
 10
1147.364587452921
 20
-1934.041657957592
 30
0.0
 10
1156.417450501088
 20
-1934.041657957592
 30
0.0
 10
1165.470313549256
 20
-1934.041657957592
 30
0.0
 10
1168.400050839199
 20
-1926.864079191128
 30
0.0
 10
1168.693018845976
 20
-1923.009788665589
 30
0.0
 10
1168.839502849364
 20
-1921.08264340282
 30
0.0
 10
1168.985986852753
 20
-1919.15549814005
 30
0.0
 10
1155.802197659096
 20
-1919.15549814005
 30
0.0
 10
1142.618408465439
 20
-1919.15549814005
 30
0.0
 10
1142.618408465439
 20
-1915.063181048251
 30
0.0
 10
1142.618408465439
 20
-1910.970863956452
 30
0.0
 10
1172.794637700056
 20
-1910.970863956452
 30
0.0
 10
1202.970866934673
 20
-1910.970863956452
 30
0.0
  0
LWPOLYLINE
  5
B0
330
30
100
AcDbEntity
  8
一般
  6
Continuous
 62
     7
370
     9
100
AcDbPolyline
 90
        4
 70
   129
 43
0.0
 10
1156.095184739931
 20
-1984.57765821928
 10
1188.380814141834
 20
-1984.57765821928
 10
1188.380814141834
 20
-1966.944988504448
 10
1156.095184739931
 20
-1966.944988504448
  0
LWPOLYLINE
  5
B1
330
30
100
AcDbEntity
  8
一般
  6
Continuous
 62
     7
370
     9
100
AcDbPolyline
 90
        4
 70
   129
 43
0.0
 10
1156.095184739931
 20
-1958.76035432085
 10
1188.380814141834
 20
-1958.76035432085
 10
1188.380814141834
 20
-1942.226292141189
 10
1156.095184739931
 20
-1942.226292141189
  0
SPLINE
  5
B2
330
30
100
AcDbEntity
  8
一般
  6
Continuous
 62
     7
370
     9
100
AcDbSpline
210
0.0
220
0.0
230
1.0
 70
    11
 71
     2
 72
    16
 73
    13
 74
     0
 42
0.0000000001
 43
0.0000000001
 40
0.0
 40
0.0
 40
0.0
 40
1.0
 40
1.0
 40
2.0
 40
2.0
 40
3.0
 40
3.0
 40
4.0
 40
4.0
 40
5.0
 40
5.0
 40
6.0
 40
6.0
 40
6.0
 10
1111.563265673462
 20
-1947.224948379645
 30
0.0
 10
1116.250830078125
 20
-1958.76035432085
 30
0.0
 10
1117.42273071632
 20
-1967.823870956331
 30
0.0
 10
1118.008681035417
 20
-1972.35562927407
 30
0.0
 10
1118.594631354515
 20
-1976.88738759181
 30
0.0
 10
1114.493002963406
 20
-1977.711347713506
 30
0.0
 10
1110.391374572297
 20
-1978.535307835203
 30
0.0
 10
1108.047592369965
 20
-1961.506864218142
 30
0.0
 10
1105.996778174411
 20
-1955.18986642059
 30
0.0
 10
1104.971371076634
 20
-1952.031367521814
 30
0.0
 10
1103.945963978856
 20
-1948.872868623037
 30
0.0
 10
1107.754614826159
 20
-1948.048908501341
 30
0.0
 10
1111.563265673462
 20
-1947.224948379645
 30
0.0
  0
SPLINE
  5
B3
330
30
100
AcDbEntity
  8
一般
  6
Continuous
 62
     7
370
     9
100
AcDbSpline
210
0.0
220
0.0
230
1.0
 70
    11
 71
     2
 72
    20
 73
    17
 74
     0
 42
0.0000000001
 43
0.0000000001
 40
0.0
 40
0.0
 40
0.0
 40
1.0
 40
1.0
 40
2.0
 40
2.0
 40
3.0
 40
3.0
 40
4.0
 40
4.0
 40
5.0
 40
5.0
 40
6.0
 40
6.0
 40
7.0
 40
7.0
 40
8.0
 40
8.0
 40
8.0
 10
1085.78164237376
 20
-1949.42218133126
 30
0.0
 10
1087.539469488479
 20
-1949.971476158208
 30
0.0
 10
1086.074610380537
 20
-1951.344740047491
 30
0.0
 10
1085.342180826566
 20
-1952.031371992132
 30
0.0
 10
1084.609751272595
 20
-1952.718003936773
 30
0.0
 10
1081.680013982651
 20
-1970.295742380784
 30
0.0
 10
1079.629199787097
 20
-1978.535307835203
 30
0.0
 10
1078.60379268932
 20
-1982.655090562413
 30
0.0
 10
1077.578385591543
 20
-1986.774873289623
 30
0.0
 10
1072.89082118688
 20
-1985.401609400341
 30
0.0
 10
1068.203256782217
 20
-1984.028345511058
 30
0.0
 10
1072.89082118688
 20
-1968.64782213739
 30
0.0
 10
1074.648657838628
 20
-1958.211041612628
 30
0.0
 10
1075.527576164503
 20
-1952.992651350248
 30
0.0
 10
1076.406494490377
 20
-1947.774261087867
 30
0.0
 10
1081.094068432068
 20
-1948.598221209564
 30
0.0
 10
1085.78164237376
 20
-1949.42218133126
 30
0.0
  0
SPLINE
  5
B4
330
30
100
AcDbEntity
  8
一般
  6
Continuous
 62
     7
370
     9
100
AcDbSpline
210
0.0
220
0.0
230
1.0
 70
    11
 71
     2
 72
    56
 73
    53
 74
     0
 42
0.0000000001
 43
0.0000000001
 40
0.0
 40
0.0
 40
0.0
 40
1.0
 40
1.0
 40
2.0
 40
2.0
 40
3.0
 40
3.0
 40
4.0
 40
4.0
 40
5.0
 40
5.0
 40
6.0
 40
6.0
 40
7.0
 40
7.0
 40
8.0
 40
8.0
 40
9.0
 40
9.0
 40
10.0
 40
10.0
 40
11.0
 40
11.0
 40
12.0
 40
12.0
 40
13.0
 40
13.0
 40
14.0
 40
14.0
 40
15.0
 40
15.0
 40
16.0
 40
16.0
 40
17.0
 40
17.0
 40
18.0
 40
18.0
 40
19.0
 40
19.0
 40
20.0
 40
20.0
 40
21.0
 40
21.0
 40
22.0
 40
22.0
 40
23.0
 40
23.0
 40
24.0
 40
24.0
 40
25.0
 40
25.0
 40
26.0
 40
26.0
 40
26.0
 10
1332.481513127246
 20
-1881.857737452509
 30
0.0
 10
1332.481513127246
 20
-1908.224345118524
 30
0.0
 10
1332.481513127246
 20
-1934.59095278454
 30
0.0
 10
1327.49120526065
 20
-1934.59095278454
 30
0.0
 10
1322.500897394055
 20
-1934.59095278454
 30
0.0
 10
1322.500897394055
 20
-1932.128236571891
 30
0.0
 10
1322.500897394055
 20
-1929.665520359241
 30
0.0
 10
1305.518223271221
 20
-1929.665520359241
 30
0.0
 10
1288.535549148389
 20
-1929.665520359241
 30
0.0
 10
1296.738786856548
 20
-1950.392615901179
 30
0.0
 10
1304.063111007347
 20
-1956.773700181357
 30
0.0
 10
1307.725273082747
 20
-1959.964242321446
 30
0.0
 10
1311.387435158147
 20
-1963.154784461535
 30
0.0
 10
1325.450147446193
 20
-1975.788780056639
 30
0.0
 10
1338.047991089267
 20
-1979.908562783848
 30
0.0
 10
1344.346912910804
 20
-1981.968454147453
 30
0.0
 10
1350.645834732342
 20
-1984.028345511058
 30
0.0
 10
1347.130161428845
 20
-1988.697432005854
 30
0.0
 10
1343.614488125348
 20
-1993.366518500649
 30
0.0
 10
1318.418800839199
 20
-1982.929737975888
 30
0.0
 10
1311.387444695176
 20
-1976.06343641075
 30
0.0
 10
1307.871766623165
 20
-1972.630285628181
 30
0.0
 10
1304.356088551154
 20
-1969.197134845613
 30
0.0
 10
1289.707440249554
 20
-1955.299720021598
 30
0.0
 10
1284.433920757279
 20
-1942.482620190419
 30
0.0
 10
1281.797161011142
 20
-1936.07407027483
 30
0.0
 10
1279.160401265005
 20
-1929.665520359241
 30
0.0
 10
1264.511752963406
 20
-1929.665520359241
 30
0.0
 10
1249.863104661806
 20
-1929.665520359241
 30
0.0
 10
1249.863104661806
 20
-1931.02962903672
 30
0.0
 10
1249.863104661806
 20
-1932.393737714198
 30
0.0
 10
1249.863104661806
 20
-1955.464513834064
 30
0.0
 10
1246.933367371863
 20
-1962.330824339839
 30
0.0
 10
1245.468498726891
 20
-1965.763979592725
 30
0.0
 10
1244.00363008192
 20
-1969.197134845613
 30
0.0
 10
1237.558219488479
 20
-1984.57765821928
 30
0.0
 10
1231.112818432068
 20
-1990.345352249247
 30
0.0
 10
1227.890117903863
 20
-1993.22919926423
 30
0.0
 10
1224.667417375658
 20
-1996.113046279213
 30
0.0
 10
1220.565788984549
 20
-1992.817214733064
 30
0.0
 10
1216.46416059344
 20
-1989.521383186914
 30
0.0
 10
1229.940936867932
 20
-1977.985995126981
 30
0.0
 10
1232.57768707704
 20
-1971.394340975318
 30
0.0
 10
1233.896062181594
 20
-1968.098513899486
 30
0.0
 10
1235.214437286148
 20
-1964.802686823655
 30
0.0
 10
1239.882488928616
 20
-1951.619396401602
 30
0.0
 10
1239.882488928616
 20
-1941.182606936203
 30
0.0
 10
1239.882488928616
 20
-1935.964212203504
 30
0.0
 10
1239.882488928616
 20
-1930.745817470805
 30
0.0
 10
1239.882488928616
 20
-1906.301777461657
 30
0.0
 10
1239.882488928616
 20
-1881.857737452509
 30
0.0
 10
1286.18200102793
 20
-1881.857737452509
 30
0.0
 10
1332.481513127246
 20
-1881.857737452509
 30
0.0
  0
LWPOLYLINE
  5
B5
330
30
100
AcDbEntity
  8
一般
  6
Continuous
 62
     7
370
     9
100
AcDbPolyline
 90
        4
 70
   129
 43
0.0
 10
1249.863104661806
 20
-1920.309036946044
 10
1322.500897394055
 20
-1920.309036946044
 10
1322.500897394055
 20
-1891.214220865708
 10
1249.863104661806
 20
-1891.214220865708
  0
SPLINE
  5
B6
330
30
100
AcDbEntity
  8
一般
  6
Continuous
 62
     7
370
     9
100
AcDbSpline
210
0.0
220
0.0
230
1.0
 70
    11
 71
     2
 72
    24
 73
    21
 74
     0
 42
0.0000000001
 43
0.0000000001
 40
0.0
 40
0.0
 40
0.0
 40
1.0
 40
1.0
 40
2.0
 40
2.0
 40
3.0
 40
3.0
 40
4.0
 40
4.0
 40
5.0
 40
5.0
 40
6.0
 40
6.0
 40
7.0
 40
7.0
 40
8.0
 40
8.0
 40
9.0
 40
9.0
 40
10.0
 40
10.0
 40
10.0
 10
1442.069972451885
 20
-1876.364699776654
 30
0.0
 10
1442.069972451885
 20
-1930.20567785566
 30
0.0
 10
1442.069972451885
 20
-1984.046655934666
 30
0.0
 10
1437.07966458529
 20
-1984.046655934666
 30
0.0
 10
1432.089356718694
 20
-1984.046655934666
 30
0.0
 10
1432.089356718694
 20
-1940.917114734532
 30
0.0
 10
1432.089356718694
 20
-1897.787573534399
 30
0.0
 10
1419.208301449941
 20
-1897.787573534399
 30
0.0
 10
1406.327246181188
 20
-1897.787573534399
 30
0.0
 10
1406.327246181188
 20
-1894.76639834236
 30
0.0
 10
1406.327246181188
 20
-1891.745223150322
 30
0.0
 10
1425.077522873896
 20
-1891.1959104421
 30
0.0
 10
1428.593205714422
 20
-1887.900087836587
 30
0.0
 10
1430.351047134685
 20
-1886.25217653383
 30
0.0
 10
1432.108888554948
 20
-1884.604265231073
 30
0.0
 10
1435.624561858445
 20
-1881.30844262556
 30
0.0
 10
1436.210507409028
 20
-1878.836571201107
 30
0.0
 10
1436.503480184319
 20
-1877.60063548888
 30
0.0
 10
1436.796452959611
 20
-1876.364699776654
 30
0.0
 10
1439.433212705748
 20
-1876.364699776654
 30
0.0
 10
1442.069972451885
 20
-1876.364699776654
 30
0.0
  0
LWPOLYLINE
  5
B7
330
30
100
AcDbEntity
  8
一般
  6
Continuous
 62
     7
370
     9
100
AcDbPolyline
 90
        4
 70
   129
 43
0.0
 10
1592.088722451885
 20
-1898.88618106957
 10
1592.088722451885
 20
-1913.168079026795
 10
1576.854119062674
 20
-1913.168079026795
 10
1576.854119062674
 20
-1898.88618106957
  0
LWPOLYLINE
  5
B8
330
30
100
AcDbEntity
  8
一般
  6
Continuous
 62
     7
370
     9
100
AcDbPolyline
 90
        4
 70
   129
 43
0.0
 10
1592.088722451885
 20
-1954.915219007115
 10
1592.088722451885
 20
-1969.197134845613
 10
1576.854119062674
 20
-1969.197134845613
 10
1576.854119062674
 20
-1954.915219007115
  0
SPLINE
  5
B9
330
30
100
AcDbEntity
  8
一般
  6
Continuous
 62
     7
370
     9
100
AcDbSpline
210
0.0
220
0.0
230
1.0
 70
    11
 71
     2
 72
    70
 73
    67
 74
     0
 42
0.0000000001
 43
0.0000000001
 40
0.0
 40
0.0
 40
0.0
 40
1.0
 40
1.0
 40
2.0
 40
2.0
 40
3.0
 40
3.0
 40
4.0
 40
4.0
 40
5.0
 40
5.0
 40
6.0
 40
6.0
 40
7.0
 40
7.0
 40
8.0
 40
8.0
 40
9.0
 40
9.0
 40
10.0
 40
10.0
 40
11.0
 40
11.0
 40
12.0
 40
12.0
 40
13.0
 40
13.0
 40
14.0
 40
14.0
 40
15.0
 40
15.0
 40
16.0
 40
16.0
 40
17.0
 40
17.0
 40
18.0
 40
18.0
 40
19.0
 40
19.0
 40
20.0
 40
20.0
 40
21.0
 40
21.0
 40
22.0
 40
22.0
 40
23.0
 40
23.0
 40
24.0
 40
24.0
 40
25.0
 40
25.0
 40
26.0
 40
26.0
 40
27.0
 40
27.0
 40
28.0
 40
28.0
 40
29.0
 40
29.0
 40
30.0
 40
30.0
 40
31.0
 40
31.0
 40
32.0
 40
32.0
 40
33.0
 40
33.0
 40
33.0
 10
1736.833952959611
 20
-1875.815387068432
 30
0.0
 10
1752.654492362376
 20
-1875.815387068432
 30
0.0
 10
1757.635034310844
 20
-1880.484473563227
 30
0.0
 10
1760.125305285078
 20
-1882.819016810625
 30
0.0
 10
1762.615576259312
 20
-1885.153560058022
 30
0.0
 10
1771.404769055084
 20
-1893.393125512442
 30
0.0
 10
1771.404769055084
 20
-1899.710132250631
 30
0.0
 10
1771.404769055084
 20
-1902.868635619725
 30
0.0
 10
1771.404769055084
 20
-1906.02713898882
 30
0.0
 10
1771.404769055084
 20
-1917.01321434053
 30
0.0
 10
1768.182073295393
 20
-1921.132997067739
 30
0.0
 10
1766.570725415548
 20
-1923.192888431344
 30
0.0
 10
1764.959377535703
 20
-1925.25277979495
 30
0.0
 10
1759.099902955816
 20
-1932.94305042242
 30
0.0
 10
1745.623145755382
 20
-1943.105174593071
 30
0.0
 10
1738.884767155165
 20
-1948.186236678396
 30
0.0
 10
1732.146388554948
 20
-1953.267298763722
 30
0.0
 10
1719.84152245568
 20
-1962.605471753312
 30
0.0
 10
1713.982057412823
 20
-1968.64782213739
 30
0.0
 10
1711.052324891394
 20
-1971.668997329429
 30
0.0
 10
1708.122592369965
 20
-1974.690172521468
 30
0.0
 10
1739.763680712524
 20
-1974.690172521468
 30
0.0
 10
1771.404769055084
 20
-1974.690172521468
 30
0.0
 10
1771.404769055084
 20
-1979.368414228067
 30
0.0
 10
1771.404769055084
 20
-1984.046655934666
 30
0.0
 10
1733.904215669667
 20
-1984.046655934666
 30
0.0
 10
1696.40366228425
 20
-1984.046655934666
 30
0.0
 10
1696.40366228425
 20
-1978.819110460481
 30
0.0
 10
1696.40366228425
 20
-1973.591564986297
 30
0.0
 10
1711.052329659909
 20
-1958.76035432085
 30
0.0
 10
1720.134490462457
 20
-1951.619396401602
 30
0.0
 10
1724.675570863731
 20
-1948.048917441977
 30
0.0
 10
1729.216651265005
 20
-1944.478438482353
 30
0.0
 10
1752.068556348822
 20
-1926.351387330121
 30
0.0
 10
1754.412338551154
 20
-1923.055564724607
 30
0.0
 10
1755.584229652319
 20
-1921.407653421851
 30
0.0
 10
1756.756120753485
 20
-1919.759742119095
 30
0.0
 10
1760.857749144594
 20
-1913.717391735016
 30
0.0
 10
1760.857749144594
 20
-1909.597609007807
 30
0.0
 10
1760.857749144594
 20
-1907.537717644202
 30
0.0
 10
1760.857749144594
 20
-1905.477826280597
 30
0.0
 10
1760.857749144594
 20
-1897.238260826177
 30
0.0
 10
1757.342066304067
 20
-1893.942438220664
 30
0.0
 10
1755.584224883804
 20
-1892.294526917908
 30
0.0
 10
1753.826383463541
 20
-1890.646615615151
 30
0.0
 10
1747.38099194416
 20
-1884.604265231073
 30
0.0
 10
1742.107472451885
 20
-1884.604265231073
 30
0.0
 10
1739.470712705748
 20
-1884.604265231073
 30
0.0
 10
1736.833952959611
 20
-1884.604265231073
 30
0.0
 10
1725.700977961508
 20
-1884.604265231073
 30
0.0
 10
1722.185304658012
 20
-1887.900087836587
 30
0.0
 10
1720.427468006263
 20
-1889.547999139344
 30
0.0
 10
1718.669631354514
 20
-1891.1959104421
 30
0.0
 10
1710.466374572296
 20
-1898.88618106957
 30
0.0
 10
1710.17340656552
 20
-1904.928522513012
 30
0.0
 10
1710.026922562131
 20
-1907.949693234732
 30
0.0
 10
1709.880438558744
 20
-1910.970863956452
 30
0.0
 10
1704.606919066469
 20
-1910.970863956452
 30
0.0
 10
1699.333399574194
 20
-1910.970863956452
 30
0.0
 10
1699.919354661806
 20
-1895.590340582784
 30
0.0
 10
1704.899896610274
 20
-1890.921254087989
 30
0.0
 10
1707.390167584509
 20
-1888.586710840592
 30
0.0
 10
1709.880438558744
 20
-1886.252167593193
 30
0.0
 10
1721.013413556845
 20
-1875.815387068432
 30
0.0
 10
1728.923683258228
 20
-1875.815387068432
 30
0.0
 10
1732.87881810892
 20
-1875.815387068432
 30
0.0
 10
1736.833952959611
 20
-1875.815387068432
 30
0.0
  0
SPLINE
  5
BA
330
30
100
AcDbEntity
  8
一般
  6
Continuous
 62
     7
370
     9
100
AcDbSpline
210
0.0
220
0.0
230
1.0
 70
    11
 71
     2
 72
    36
 73
    33
 74
     0
 42
0.0000000001
 43
0.0000000001
 40
0.0
 40
0.0
 40
0.0
 40
1.0
 40
1.0
 40
2.0
 40
2.0
 40
3.0
 40
3.0
 40
4.0
 40
4.0
 40
5.0
 40
5.0
 40
6.0
 40
6.0
 40
7.0
 40
7.0
 40
8.0
 40
8.0
 40
9.0
 40
9.0
 40
10.0
 40
10.0
 40
11.0
 40
11.0
 40
12.0
 40
12.0
 40
13.0
 40
13.0
 40
14.0
 40
14.0
 40
15.0
 40
15.0
 40
16.0
 40
16.0
 40
16.0
 10
1884.469857084772
 20
-1876.364699776654
 30
0.0
 10
1899.704460473984
 20
-1876.364699776654
 30
0.0
 10
1905.270947973035
 20
-1881.583090039035
 30
0.0
 10
1908.054191722561
 20
-1884.192285170225
 30
0.0
 10
1910.837435472086
 20
-1886.801480301415
 30
0.0
 10
1924.900147760132
 20
-1899.984788604742
 30
0.0
 10
1924.900147760132
 20
-1915.090655624299
 30
0.0
 10
1924.900147760132
 20
-1922.643589134078
 30
0.0
 10
1924.900147760132
 20
-1930.196522643856
 30
0.0
 10
1924.900147760132
 20
-1959.858961856022
 30
0.0
 10
1917.868791616109
 20
-1966.450607067048
 30
0.0
 10
1914.353113544097
 20
-1969.746429672561
 30
0.0
 10
1910.837435472086
 20
-1973.042252278075
 30
0.0
 10
1899.704460473984
 20
-1984.046655934666
 30
0.0
 10
1892.087158779378
 20
-1984.046655934666
 30
0.0
 10
1888.278507932075
 20
-1984.046655934666
 30
0.0
 10
1884.469857084772
 20
-1984.046655934666
 30
0.0
 10
1869.23525369556
 20
-1984.046655934666
 30
0.0
 10
1863.668766196509
 20
-1978.544454106371
 30
0.0
 10
1860.885522446984
 20
-1975.793353192223
 30
0.0
 10
1858.102278697457
 20
-1973.042252278075
 30
0.0
 10
1844.039566409412
 20
-1959.858961856022
 30
0.0
 10
1844.039566409412
 20
-1945.027742249939
 30
0.0
 10
1844.039566409412
 20
-1937.612132446897
 30
0.0
 10
1844.039566409412
 20
-1930.196522643856
 30
0.0
 10
1844.039566409412
 20
-1899.984788604742
 30
0.0
 10
1851.070922553435
 20
-1893.393134453079
 30
0.0
 10
1854.586600625446
 20
-1890.097307377247
 30
0.0
 10
1858.102278697457
 20
-1886.801480301415
 30
0.0
 10
1869.23525369556
 20
-1876.364699776654
 30
0.0
 10
1876.852555390166
 20
-1876.364699776654
 30
0.0
 10
1880.661206237469
 20
-1876.364699776654
 30
0.0
 10
1884.469857084772
 20
-1876.364699776654
 30
0.0
  0
SPLINE
  5
BB
330
30
100
AcDbEntity
  8
一般
  6
Continuous
 62
     7
370
     9
100
AcDbSpline
210
0.0
220
0.0
230
1.0
 70
    11
 71
     2
 72
    36
 73
    33
 74
     0
 42
0.0000000001
 43
0.0000000001
 40
0.0
 40
0.0
 40
0.0
 40
1.0
 40
1.0
 40
2.0
 40
2.0
 40
3.0
 40
3.0
 40
4.0
 40
4.0
 40
5.0
 40
5.0
 40
6.0
 40
6.0
 40
7.0
 40
7.0
 40
8.0
 40
8.0
 40
9.0
 40
9.0
 40
10.0
 40
10.0
 40
11.0
 40
11.0
 40
12.0
 40
12.0
 40
13.0
 40
13.0
 40
14.0
 40
14.0
 40
15.0
 40
15.0
 40
16.0
 40
16.0
 40
16.0
 10
1884.469857084772
 20
-1885.153560058022
 30
0.0
 10
1873.336882086669
 20
-1885.153560058022
 30
0.0
 10
1869.23525369556
 20
-1888.998695371758
 30
0.0
 10
1867.184439500006
 20
-1890.921263028625
 30
0.0
 10
1865.133625304451
 20
-1892.843830685493
 30
0.0
 10
1854.000650306349
 20
-1903.280611210255
 30
0.0
 10
1854.000650306349
 20
-1916.738566927056
 30
0.0
 10
1854.000650306349
 20
-1923.467544785456
 30
0.0
 10
1854.000650306349
 20
-1930.196522643856
 30
0.0
 10
1854.000650306349
 20
-1956.563121369236
 30
0.0
 10
1859.5671378054
 20
-1961.781520572253
 30
0.0
 10
1862.350381554926
 20
-1964.390720173761
 30
0.0
 10
1865.133625304451
 20
-1966.99991977527
 30
0.0
 10
1873.336882086669
 20
-1974.690172521468
 30
0.0
 10
1878.903369585721
 20
-1974.690172521468
 30
0.0
 10
1881.686613335246
 20
-1974.690172521468
 30
0.0
 10
1884.469857084772
 20
-1974.690172521468
 30
0.0
 10
1895.602832082874
 20
-1974.690172521468
 30
0.0
 10
1899.704460473984
 20
-1970.845046148369
 30
0.0
 10
1901.755274669538
 20
-1968.92248296182
 30
0.0
 10
1903.806088865092
 20
-1966.99991977527
 30
0.0
 10
1914.939063863195
 20
-1956.563121369236
 30
0.0
 10
1914.939063863195
 20
-1943.379822006545
 30
0.0
 10
1914.939063863195
 20
-1936.7881723252
 30
0.0
 10
1914.939063863195
 20
-1930.196522643856
 30
0.0
 10
1914.939063863195
 20
-1903.280611210255
 30
0.0
 10
1909.372576364144
 20
-1898.062220947874
 30
0.0
 10
1906.589332614618
 20
-1895.453025816684
 30
0.0
 10
1903.806088865092
 20
-1892.843830685493
 30
0.0
 10
1895.602832082874
 20
-1885.153560058022
 30
0.0
 10
1890.036344583823
 20
-1885.153560058022
 30
0.0
 10
1887.253100834297
 20
-1885.153560058022
 30
0.0
 10
1884.469857084772
 20
-1885.153560058022
 30
0.0
  0
ENDBLK
  5
BC
330
30
100
AcDbEntity
  8
一般
100
AcDbBlockEnd
  0
BLOCK
  5
BD
330
31
100
AcDbEntity
  8
一般
100
AcDbBlockBegin
  2
*U14
 70
     1
 10
0.0
 20
0.0
 30
0.0
  3
*U14
  1

  0
SPLINE
  5
BE
330
31
100
AcDbEntity
  8
一般
  6
Continuous
 62
     7
370
     9
100
AcDbSpline
210
0.0
220
0.0
230
1.0
 70
    11
 71
     2
 72
    64
 73
    61
 74
     0
 42
0.0000000001
 43
0.0000000001
 40
0.0
 40
0.0
 40
0.0
 40
1.0
 40
1.0
 40
2.0
 40
2.0
 40
3.0
 40
3.0
 40
4.0
 40
4.0
 40
5.0
 40
5.0
 40
6.0
 40
6.0
 40
7.0
 40
7.0
 40
8.0
 40
8.0
 40
9.0
 40
9.0
 40
10.0
 40
10.0
 40
11.0
 40
11.0
 40
12.0
 40
12.0
 40
13.0
 40
13.0
 40
14.0
 40
14.0
 40
15.0
 40
15.0
 40
16.0
 40
16.0
 40
17.0
 40
17.0
 40
18.0
 40
18.0
 40
19.0
 40
19.0
 40
20.0
 40
20.0
 40
21.0
 40
21.0
 40
22.0
 40
22.0
 40
23.0
 40
23.0
 40
24.0
 40
24.0
 40
25.0
 40
25.0
 40
26.0
 40
26.0
 40
27.0
 40
27.0
 40
28.0
 40
28.0
 40
29.0
 40
29.0
 40
30.0
 40
30.0
 40
30.0
 10
1781.453540408797
 20
590.6174151121204
 30
0.0
 10
1781.453540408797
 20
585.9391734055212
 30
0.0
 10
1781.453540408797
 20
581.2609316989221
 30
0.0
 10
1762.996231722866
 20
581.2609316989221
 30
0.0
 10
1744.538923036934
 20
581.2609316989221
 30
0.0
 10
1742.195140834603
 20
571.9319139211352
 30
0.0
 10
1739.851358632272
 20
562.6028961433482
 30
0.0
 10
1756.550821129425
 20
562.6028961433482
 30
0.0
 10
1773.250283626579
 20
562.6028961433482
 30
0.0
 10
1773.250283626579
 20
523.3276365281175
 30
0.0
 10
1773.250283626579
 20
484.0523769128868
 30
0.0
 10
1773.250283626579
 20
475.7945010348596
 30
0.0
 10
1769.441632779276
 20
475.7945010348596
 30
0.0
 10
1767.537307355626
 20
475.7945010348596
 30
0.0
 10
1765.632981931974
 20
475.7945010348596
 30
0.0
 10
1761.8243406217
 20
475.7945010348596
 30
0.0
 10
1758.015699311426
 20
475.7945010348596
 30
0.0
 10
1756.843798673232
 20
480.4727427414588
 30
0.0
 10
1755.671898035037
 20
485.1509844480578
 30
0.0
 10
1759.48054888234
 20
485.1509844480578
 30
0.0
 10
1763.289199729642
 20
485.1509844480578
 30
0.0
 10
1764.519686339569
 20
485.1509844480578
 30
0.0
 10
1764.519686339569
 20
485.9749445697546
 30
0.0
 10
1764.519686339569
 20
486.3869246306028
 30
0.0
 10
1764.519686339569
 20
486.7989046914511
 30
0.0
 10
1764.519686339569
 20
520.6085833256008
 30
0.0
 10
1764.519686339569
 20
554.4182619597505
 30
0.0
 10
1758.630933079361
 20
554.4182619597505
 30
0.0
 10
1752.742179819152
 20
554.4182619597505
 30
0.0
 10
1752.742179819152
 20
517.5874081335621
 30
0.0
 10
1752.742179819152
 20
480.7565543073736
 30
0.0
 10
1748.376881175647
 20
480.7565543073736
 30
0.0
 10
1744.011582532142
 20
480.7565543073736
 30
0.0
 10
1744.011582532142
 20
517.5874081335621
 30
0.0
 10
1744.011582532142
 20
554.4182619597505
 30
0.0
 10
1739.001742829293
 20
554.4182619597505
 30
0.0
 10
1733.991903126444
 20
554.4182619597505
 30
0.0
 10
1733.991903126444
 20
517.0381043659765
 30
0.0
 10
1733.991903126444
 20
479.6579467722024
 30
0.0
 10
1729.626604482939
 20
479.6579467722024
 30
0.0
 10
1725.261305839433
 20
479.6579467722024
 30
0.0
 10
1725.261305839433
 20
517.0381043659765
 30
0.0
 10
1725.261305839433
 20
554.4182619597505
 30
0.0
 10
1720.251466136584
 20
554.4182619597505
 30
0.0
 10
1715.241626433735
 20
554.4182619597505
 30
0.0
 10
1715.241626433735
 20
515.9394968308055
 30
0.0
 10
1715.241626433735
 20
477.4607317018603
 30
0.0
 10
1710.876327790231
 20
477.4607317018603
 30
0.0
 10
1706.511029146725
 20
477.4607317018603
 30
0.0
 10
1706.511029146725
 20
520.0318139226043
 30
0.0
 10
1706.511029146725
 20
562.6028961433482
 30
0.0
 10
1719.079575035419
 20
562.6028961433482
 30
0.0
 10
1731.648120924113
 20
562.6028961433482
 30
0.0
 10
1733.405957575861
 20
571.9319139211352
 30
0.0
 10
1735.163794227609
 20
581.2609316989221
 30
0.0
 10
1717.585408636066
 20
581.2609316989221
 30
0.0
 10
1700.007023044524
 20
581.2609316989221
 30
0.0
 10
1700.007023044524
 20
585.9391734055212
 30
0.0
 10
1700.007023044524
 20
590.6174151121204
 30
0.0
 10
1740.73028172666
 20
590.6174151121204
 30
0.0
 10
1781.453540408797
 20
590.6174151121204
 30
0.0
  0
SPLINE
  5
BF
330
31
100
AcDbEntity
  8
一般
  6
Continuous
 62
     7
370
     9
100
AcDbSpline
210
0.0
220
0.0
230
1.0
 70
    11
 71
     2
 72
    44
 73
    41
 74
     0
 42
0.0000000001
 43
0.0000000001
 40
0.0
 40
0.0
 40
0.0
 40
1.0
 40
1.0
 40
2.0
 40
2.0
 40
3.0
 40
3.0
 40
4.0
 40
4.0
 40
5.0
 40
5.0
 40
6.0
 40
6.0
 40
7.0
 40
7.0
 40
8.0
 40
8.0
 40
9.0
 40
9.0
 40
10.0
 40
10.0
 40
11.0
 40
11.0
 40
12.0
 40
12.0
 40
13.0
 40
13.0
 40
14.0
 40
14.0
 40
15.0
 40
15.0
 40
16.0
 40
16.0
 40
17.0
 40
17.0
 40
18.0
 40
18.0
 40
19.0
 40
19.0
 40
20.0
 40
20.0
 40
20.0
 10
1818.954093794214
 20
595.0118631340776
 30
0.0
 10
1820.711920908933
 20
593.9132555989067
 30
0.0
 10
1818.954084257184
 20
592.8146391230992
 30
0.0
 10
1818.07516593131
 20
592.2653308851953
 30
0.0
 10
1817.196247605436
 20
591.7160226472915
 30
0.0
 10
1817.196247605436
 20
577.9834195170163
 30
0.0
 10
1817.196247605436
 20
564.2508163867412
 30
0.0
 10
1825.985440401207
 20
564.2508163867412
 30
0.0
 10
1834.774633196979
 20
564.2508163867412
 30
0.0
 10
1834.774633196979
 20
559.5725746801422
 30
0.0
 10
1834.774633196979
 20
554.8943329735432
 30
0.0
 10
1825.985440401207
 20
554.8943329735432
 30
0.0
 10
1817.196247605436
 20
554.8943329735432
 30
0.0
 10
1817.196247605436
 20
519.7480112973259
 30
0.0
 10
1817.196247605436
 20
484.6016896211088
 30
0.0
 10
1817.196247605436
 20
475.7945010348596
 30
0.0
 10
1813.387596758133
 20
475.7945010348596
 30
0.0
 10
1811.483271334482
 20
475.7945010348596
 30
0.0
 10
1809.57894591083
 20
475.7945010348596
 30
0.0
 10
1802.547599303836
 20
475.7945010348596
 30
0.0
 10
1795.516252696844
 20
475.7945010348596
 30
0.0
 10
1794.344352058648
 20
480.4727427414588
 30
0.0
 10
1793.172451420453
 20
485.1509844480578
 30
0.0
 10
1799.9108395577
 20
485.1509844480578
 30
0.0
 10
1806.649227694946
 20
485.1509844480578
 30
0.0
 10
1808.465650318426
 20
485.1509844480578
 30
0.0
 10
1808.465650318426
 20
486.2496009238655
 30
0.0
 10
1808.465650318426
 20
486.7989091617693
 30
0.0
 10
1808.465650318426
 20
487.3482173996731
 30
0.0
 10
1808.465650318426
 20
521.1212751866082
 30
0.0
 10
1808.465650318426
 20
554.8943329735432
 30
0.0
 10
1792.908781168057
 20
554.8943329735432
 30
0.0
 10
1777.351912017688
 20
554.8943329735432
 30
0.0
 10
1777.351912017688
 20
559.5725746801422
 30
0.0
 10
1777.351912017688
 20
564.2508163867412
 30
0.0
 10
1792.908781168057
 20
564.2508163867412
 30
0.0
 10
1808.465650318426
 20
564.2508163867412
 30
0.0
 10
1808.465650318426
 20
580.1806435279949
 30
0.0
 10
1808.465650318426
 20
596.1104706692487
 30
0.0
 10
1813.70987205632
 20
595.5611669016632
 30
0.0
 10
1818.954093794214
 20
595.0118631340776
 30
0.0
  0
SPLINE
  5
C0
330
31
100
AcDbEntity
  8
一般
  6
Continuous
 62
     7
370
     9
100
AcDbSpline
210
0.0
220
0.0
230
1.0
 70
    11
 71
     2
 72
    16
 73
    13
 74
     0
 42
0.0000000001
 43
0.0000000001
 40
0.0
 40
0.0
 40
0.0
 40
1.0
 40
1.0
 40
2.0
 40
2.0
 40
3.0
 40
3.0
 40
4.0
 40
4.0
 40
5.0
 40
5.0
 40
6.0
 40
6.0
 40
6.0
 10
1787.898951002238
 20
542.8279426289955
 30
0.0
 10
1794.344342521619
 20
530.7432597421137
 30
0.0
 10
1796.68813426098
 20
522.7783417011685
 30
0.0
 10
1797.86003013066
 20
518.795882680696
 30
0.0
 10
1799.03192600034
 20
514.8134236602234
 30
0.0
 10
1794.930297609231
 20
513.1655123574667
 30
0.0
 10
1790.828669218122
 20
511.51760105471
 30
0.0
 10
1786.727059901072
 20
526.8981244283784
 30
0.0
 10
1783.504354604352
 20
533.2151222259303
 30
0.0
 10
1781.893001955992
 20
536.3736211247063
 30
0.0
 10
1780.281649307632
 20
539.5321200234823
 30
0.0
 10
1784.090300154935
 20
541.1800313262387
 30
0.0
 10
1787.898951002238
 20
542.8279426289955
 30
0.0
  0
SPLINE
  5
C1
330
31
100
AcDbEntity
  8
一般
  6
Continuous
 62
     7
370
     9
100
AcDbSpline
210
0.0
220
0.0
230
1.0
 70
    11
 71
     2
 72
    72
 73
    69
 74
     0
 42
0.0000000001
 43
0.0000000001
 40
0.0
 40
0.0
 40
0.0
 40
1.0
 40
1.0
 40
2.0
 40
2.0
 40
3.0
 40
3.0
 40
4.0
 40
4.0
 40
5.0
 40
5.0
 40
6.0
 40
6.0
 40
7.0
 40
7.0
 40
8.0
 40
8.0
 40
9.0
 40
9.0
 40
10.0
 40
10.0
 40
11.0
 40
11.0
 40
12.0
 40
12.0
 40
13.0
 40
13.0
 40
14.0
 40
14.0
 40
15.0
 40
15.0
 40
16.0
 40
16.0
 40
17.0
 40
17.0
 40
18.0
 40
18.0
 40
19.0
 40
19.0
 40
20.0
 40
20.0
 40
21.0
 40
21.0
 40
22.0
 40
22.0
 40
23.0
 40
23.0
 40
24.0
 40
24.0
 40
25.0
 40
25.0
 40
26.0
 40
26.0
 40
27.0
 40
27.0
 40
28.0
 40
28.0
 40
29.0
 40
29.0
 40
30.0
 40
30.0
 40
31.0
 40
31.0
 40
32.0
 40
32.0
 40
33.0
 40
33.0
 40
34.0
 40
34.0
 40
34.0
 10
1923.854988714191
 20
595.0118631340776
 30
0.0
 10
1925.612815828911
 20
593.9132555989067
 30
0.0
 10
1923.854979177162
 20
592.8146391230992
 30
0.0
 10
1922.976060851288
 20
592.2653308851953
 30
0.0
 10
1922.097142525414
 20
591.7160226472915
 30
0.0
 10
1922.097142525414
 20
577.9834195170163
 30
0.0
 10
1922.097142525414
 20
564.2508163867412
 30
0.0
 10
1947.585797818339
 20
564.2508163867412
 30
0.0
 10
1973.074453111264
 20
564.2508163867412
 30
0.0
 10
1972.488517097711
 20
533.4897696394047
 30
0.0
 10
1971.316625996545
 20
519.7571665091296
 30
0.0
 10
1970.730680445963
 20
512.8908649439922
 30
0.0
 10
1970.144734895379
 20
506.0245633788547
 30
0.0
 10
1968.386888706602
 20
486.2495919832289
 30
0.0
 10
1966.04310650427
 20
484.0523769128868
 30
0.0
 10
1964.871215403104
 20
482.9537693777156
 30
0.0
 10
1963.69932430194
 20
481.8551618425447
 30
0.0
 10
1959.011759897277
 20
476.3438137430819
 30
0.0
 10
1953.445272398226
 20
476.3438137430819
 30
0.0
 10
1950.6620286487
 20
476.3438137430819
 30
0.0
 10
1947.878784899175
 20
476.3438137430819
 30
0.0
 10
1939.675537653986
 20
476.3438137430819
 30
0.0
 10
1931.472290408797
 20
476.3438137430819
 30
0.0
 10
1929.714453757049
 20
481.0220554496808
 30
0.0
 10
1927.9566171053
 20
485.7002971562799
 30
0.0
 10
1937.917701002237
 20
485.7002971562799
 30
0.0
 10
1947.878784899175
 20
485.7002971562799
 30
0.0
 10
1953.738240405002
 20
485.7002971562799
 30
0.0
 10
1955.203109049974
 20
487.073561045562
 30
0.0
 10
1955.935543372461
 20
487.7601929902031
 30
0.0
 10
1956.667977694946
 20
488.4468249348442
 30
0.0
 10
1959.59769591083
 20
491.1933348321354
 30
0.0
 10
1960.183641461413
 20
498.8835965189693
 30
0.0
 10
1960.476614236705
 20
502.7287273623864
 30
0.0
 10
1960.769587011996
 20
506.5738582058036
 30
0.0
 10
1963.113369214328
 20
533.9475302295897
 30
0.0
 10
1963.113369214328
 20
544.4209316015665
 30
0.0
 10
1963.113369214328
 20
549.6576322875548
 30
0.0
 10
1963.113369214328
 20
554.8943329735432
 30
0.0
 10
1942.60525586987
 20
554.8943329735432
 30
0.0
 10
1922.097142525414
 20
554.8943329735432
 30
0.0
 10
1919.167424309529
 20
525.3783771502368
 30
0.0
 10
1913.600936810478
 20
516.5254214456057
 30
0.0
 10
1910.817693060952
 20
512.0989435932902
 30
0.0
 10
1908.034449311426
 20
507.6724657409748
 30
0.0
 10
1894.557673036934
 20
485.7002971562799
 30
0.0
 10
1879.616047191528
 20
481.0312106614845
 30
0.0
 10
1872.145234268826
 20
478.6966674140868
 30
0.0
 10
1864.674421346124
 20
476.3621241666892
 30
0.0
 10
1861.744693593209
 20
480.7565543073736
 30
0.0
 10
1858.814965840296
 20
485.1509844480578
 30
0.0
 10
1888.112262443494
 20
493.3905499024775
 30
0.0
 10
1894.264705030157
 20
503.2780356002903
 30
0.0
 10
1897.340926323489
 20
508.2217784491968
 30
0.0
 10
1900.41714761682
 20
513.1655212981031
 30
0.0
 10
1909.889935607414
 20
528.6741997557503
 30
0.0
 10
1911.003231199818
 20
541.7842663646467
 30
0.0
 10
1911.559878996021
 20
548.339299669095
 30
0.0
 10
1912.116526792223
 20
554.8943329735432
 30
0.0
 10
1889.274397163562
 20
554.8943329735432
 30
0.0
 10
1866.4322675349
 20
554.8943329735432
 30
0.0
 10
1866.4322675349
 20
559.5725746801422
 30
0.0
 10
1866.4322675349
 20
564.2508163867412
 30
0.0
 10
1889.274397163562
 20
564.2508163867412
 30
0.0
 10
1912.116526792223
 20
564.2508163867412
 30
0.0
 10
1912.116526792223
 20
580.1806435279949
 30
0.0
 10
1912.116526792223
 20
596.1104706692487
 30
0.0
 10
1917.985757753207
 20
595.5611669016632
 30
0.0
 10
1923.854988714191
 20
595.0118631340776
 30
0.0
  0
SPLINE
  5
C2
330
31
100
AcDbEntity
  8
一般
  6
Continuous
 62
     7
370
     9
100
AcDbSpline
210
0.0
220
0.0
230
1.0
 70
    11
 71
     2
 72
    40
 73
    37
 74
     0
 42
0.0000000001
 43
0.0000000001
 40
0.0
 40
0.0
 40
0.0
 40
1.0
 40
1.0
 40
2.0
 40
2.0
 40
3.0
 40
3.0
 40
4.0
 40
4.0
 40
5.0
 40
5.0
 40
6.0
 40
6.0
 40
7.0
 40
7.0
 40
8.0
 40
8.0
 40
9.0
 40
9.0
 40
10.0
 40
10.0
 40
11.0
 40
11.0
 40
12.0
 40
12.0
 40
13.0
 40
13.0
 40
14.0
 40
14.0
 40
15.0
 40
15.0
 40
16.0
 40
16.0
 40
17.0
 40
17.0
 40
18.0
 40
18.0
 40
18.0
 10
2072.701847613026
 20
520.3064613360786
 30
0.0
 10
2074.459674727745
 20
519.2078538009075
 30
0.0
 10
2072.701838075997
 20
518.1092462657366
 30
0.0
 10
2071.822919750123
 20
517.5599424981511
 30
0.0
 10
2070.944001424248
 20
517.0106387305654
 30
0.0
 10
2070.944001424248
 20
513.4401597709412
 30
0.0
 10
2070.944001424248
 20
509.8696808113169
 30
0.0
 10
2093.50292896426
 20
509.8696808113169
 30
0.0
 10
2116.061856504271
 20
509.8696808113169
 30
0.0
 10
2116.061856504271
 20
505.7773637195182
 30
0.0
 10
2116.061856504271
 20
501.6850466277193
 30
0.0
 10
2093.50292896426
 20
501.6850466277193
 30
0.0
 10
2070.944001424248
 20
501.6850466277193
 30
0.0
 10
2070.944001424248
 20
493.6926718919997
 30
0.0
 10
2070.944001424248
 20
485.7002971562799
 30
0.0
 10
2101.120230658865
 20
485.7002971562799
 30
0.0
 10
2131.296459893482
 20
485.7002971562799
 30
0.0
 10
2131.296459893482
 20
481.6079800644812
 30
0.0
 10
2131.296459893482
 20
477.5156629726825
 30
0.0
 10
2066.842382570169
 20
477.5156629726825
 30
0.0
 10
2002.388305246855
 20
477.5156629726825
 30
0.0
 10
2002.388305246855
 20
481.6079800644812
 30
0.0
 10
2002.388305246855
 20
485.7002971562799
 30
0.0
 10
2032.300854692047
 20
485.7002971562799
 30
0.0
 10
2062.213404137238
 20
485.7002971562799
 30
0.0
 10
2062.213404137238
 20
493.6926718919997
 30
0.0
 10
2062.213404137238
 20
501.6850466277193
 30
0.0
 10
2039.332210836069
 20
501.6850466277193
 30
0.0
 10
2016.451017534901
 20
501.6850466277193
 30
0.0
 10
2016.451017534901
 20
505.7773637195182
 30
0.0
 10
2016.451017534901
 20
509.8696808113169
 30
0.0
 10
2039.332210836069
 20
509.8696808113169
 30
0.0
 10
2062.213404137238
 20
509.8696808113169
 30
0.0
 10
2062.213404137238
 20
515.6373748412833
 30
0.0
 10
2062.213404137238
 20
521.4050688712497
 30
0.0
 10
2067.457625875132
 20
520.8557651036642
 30
0.0
 10
2072.701847613026
 20
520.3064613360786
 30
0.0
  0
SPLINE
  5
C3
330
31
100
AcDbEntity
  8
一般
  6
Continuous
 62
     7
370
     9
100
AcDbSpline
210
0.0
220
0.0
230
1.0
 70
    11
 71
     2
 72
    64
 73
    61
 74
     0
 42
0.0000000001
 43
0.0000000001
 40
0.0
 40
0.0
 40
0.0
 40
1.0
 40
1.0
 40
2.0
 40
2.0
 40
3.0
 40
3.0
 40
4.0
 40
4.0
 40
5.0
 40
5.0
 40
6.0
 40
6.0
 40
7.0
 40
7.0
 40
8.0
 40
8.0
 40
9.0
 40
9.0
 40
10.0
 40
10.0
 40
11.0
 40
11.0
 40
12.0
 40
12.0
 40
13.0
 40
13.0
 40
14.0
 40
14.0
 40
15.0
 40
15.0
 40
16.0
 40
16.0
 40
17.0
 40
17.0
 40
18.0
 40
18.0
 40
19.0
 40
19.0
 40
20.0
 40
20.0
 40
21.0
 40
21.0
 40
22.0
 40
22.0
 40
23.0
 40
23.0
 40
24.0
 40
24.0
 40
25.0
 40
25.0
 40
26.0
 40
26.0
 40
27.0
 40
27.0
 40
28.0
 40
28.0
 40
29.0
 40
29.0
 40
30.0
 40
30.0
 40
30.0
 10
2104.342926418556
 20
599.4062932747622
 30
0.0
 10
2106.100772607333
 20
598.3076857395912
 30
0.0
 10
2104.342935955585
 20
597.20907820442
 30
0.0
 10
2103.464017629712
 20
596.6597744368344
 30
0.0
 10
2102.585099303837
 20
596.1104706692487
 30
0.0
 10
2102.585099303837
 20
590.3427766392824
 30
0.0
 10
2102.585099303837
 20
584.575082609316
 30
0.0
 10
2115.768888497494
 20
584.575082609316
 30
0.0
 10
2128.952677691152
 20
584.575082609316
 30
0.0
 10
2128.952677691152
 20
580.4827655175172
 30
0.0
 10
2128.952677691152
 20
576.3904484257184
 30
0.0
 10
2124.558081293265
 20
576.3904484257184
 30
0.0
 10
2120.16348489538
 20
576.3904484257184
 30
0.0
 10
2116.061856504271
 20
568.3980647493622
 30
0.0
 10
2111.960228113161
 20
560.4056810730059
 30
0.0
 10
2123.38618065507
 20
560.4056810730059
 30
0.0
 10
2134.81213319698
 20
560.4056810730059
 30
0.0
 10
2134.81213319698
 20
556.3133639812072
 30
0.0
 10
2134.81213319698
 20
552.2210468894082
 30
0.0
 10
2118.698616250408
 20
552.2210468894082
 30
0.0
 10
2102.585099303837
 20
552.2210468894082
 30
0.0
 10
2102.585099303837
 20
546.9751909916165
 30
0.0
 10
2102.585099303837
 20
541.7293350938246
 30
0.0
 10
2116.647802054853
 20
541.7293350938246
 30
0.0
 10
2130.71050480587
 20
541.7293350938246
 30
0.0
 10
2130.71050480587
 20
537.6370180020257
 30
0.0
 10
2130.71050480587
 20
533.544700910227
 30
0.0
 10
2116.647802054853
 20
533.544700910227
 30
0.0
 10
2102.585099303837
 20
533.544700910227
 30
0.0
 10
2102.585099303837
 20
524.4537186393362
 30
0.0
 10
2102.585099303837
 20
515.3627363684454
 30
0.0
 10
2098.219800660332
 20
515.3627363684454
 30
0.0
 10
2093.854502016827
 20
515.3627363684454
 30
0.0
 10
2093.854502016827
 20
524.4537186393362
 30
0.0
 10
2093.854502016827
 20
533.544700910227
 30
0.0
 10
2081.520338163178
 20
533.544700910227
 30
0.0
 10
2069.18617430953
 20
533.544700910227
 30
0.0
 10
2069.18617430953
 20
537.6370180020257
 30
0.0
 10
2069.18617430953
 20
541.7293350938246
 30
0.0
 10
2081.520338163178
 20
541.7293350938246
 30
0.0
 10
2093.854502016827
 20
541.7293350938246
 30
0.0
 10
2093.854502016827
 20
546.9751909916165
 30
0.0
 10
2093.854502016827
 20
552.2210468894082
 30
0.0
 10
2079.176546423817
 20
552.2210468894082
 30
0.0
 10
2064.498590830808
 20
552.2210468894082
 30
0.0
 10
2064.498590830808
 20
556.3133639812072
 30
0.0
 10
2064.498590830808
 20
560.4056810730059
 30
0.0
 10
2074.752652271552
 20
560.4056810730059
 30
0.0
 10
2085.006713712294
 20
560.4056810730059
 30
0.0
 10
2082.07698595938
 20
568.3980647493622
 30
0.0
 10
2079.147258206466
 20
576.3904484257184
 30
0.0
 10
2074.166716257997
 20
576.3904484257184
 30
0.0
 10
2069.18617430953
 20
576.3904484257184
 30
0.0
 10
2069.18617430953
 20
580.4827655175172
 30
0.0
 10
2069.18617430953
 20
584.575082609316
 30
0.0
 10
2081.520338163178
 20
584.575082609316
 30
0.0
 10
2093.854502016827
 20
584.575082609316
 30
0.0
 10
2093.854502016827
 20
592.5399917096248
 30
0.0
 10
2093.854502016827
 20
600.5049008099334
 30
0.0
 10
2099.098714217692
 20
599.9555970423476
 30
0.0
 10
2104.342926418556
 20
599.4062932747622
 30
0.0
  0
LWPOLYLINE
  5
C4
330
31
100
AcDbEntity
  8
一般
  6
Continuous
 62
     7
370
     9
100
AcDbPolyline
 90
        4
 70
   129
 43
0.0
 10
2093.209951420453
 20
560.4056810730059
 10
2104.342926418556
 20
560.4056810730059
 10
2111.960228113161
 20
576.3904484257184
 10
2087.936451002237
 20
576.3904484257184
  0
SPLINE
  5
C5
330
31
100
AcDbEntity
  8
一般
  6
Continuous
 62
     7
370
     9
100
AcDbSpline
210
0.0
220
0.0
230
1.0
 70
    11
 71
     2
 72
    32
 73
    29
 74
     0
 42
0.0000000001
 43
0.0000000001
 40
0.0
 40
0.0
 40
0.0
 40
1.0
 40
1.0
 40
2.0
 40
2.0
 40
3.0
 40
3.0
 40
4.0
 40
4.0
 40
5.0
 40
5.0
 40
6.0
 40
6.0
 40
7.0
 40
7.0
 40
8.0
 40
8.0
 40
9.0
 40
9.0
 40
10.0
 40
10.0
 40
11.0
 40
11.0
 40
12.0
 40
12.0
 40
13.0
 40
13.0
 40
14.0
 40
14.0
 40
14.0
 10
2063.326699729642
 20
592.8146480637356
 30
0.0
 10
2063.326699729642
 20
578.5601978606495
 30
0.0
 10
2063.326699729642
 20
564.3057476575633
 30
0.0
 10
2041.939672827826
 20
564.3057476575633
 30
0.0
 10
2020.55264592601
 20
564.3057476575633
 30
0.0
 10
2020.55264592601
 20
559.6091955273569
 30
0.0
 10
2020.55264592601
 20
554.9126433971505
 30
0.0
 10
2020.55264592601
 20
543.3772553372176
 30
0.0
 10
2019.087777281039
 20
539.5321200234823
 30
0.0
 10
2018.355342958553
 20
537.6095523666147
 30
0.0
 10
2017.622908636067
 20
535.6869847097471
 30
0.0
 10
2014.10723533257
 20
526.3488117201561
 30
0.0
 10
2010.591552492044
 20
522.7783327605318
 30
0.0
 10
2008.833711071781
 20
520.9930932807196
 30
0.0
 10
2007.075869651518
 20
519.2078538009075
 30
0.0
 10
2003.56019634802
 20
521.6797252253607
 30
0.0
 10
2000.044523044524
 20
524.151596649814
 30
0.0
 10
2007.075869651518
 20
531.2925545690625
 30
0.0
 10
2008.540738296489
 20
534.8630335286868
 30
0.0
 10
2009.273172618975
 20
536.648273008499
 30
0.0
 10
2010.005606941461
 20
538.4335124883111
 30
0.0
 10
2011.822048639
 20
544.4758628723888
 30
0.0
 10
2011.822048639
 20
549.9689005482442
 30
0.0
 10
2011.822048639
 20
552.7154193861719
 30
0.0
 10
2011.822048639
 20
555.4619382240996
 30
0.0
 10
2011.822048639
 20
574.1382931439176
 30
0.0
 10
2011.822048639
 20
592.8146480637356
 30
0.0
 10
2037.574374184321
 20
592.8146480637356
 30
0.0
 10
2063.326699729642
 20
592.8146480637356
 30
0.0
  0
LWPOLYLINE
  5
C6
330
31
100
AcDbEntity
  8
一般
  6
Continuous
 62
     7
370
     9
100
AcDbPolyline
 90
        4
 70
   129
 43
0.0
 10
2020.55264592601
 20
572.4903818411609
 10
2054.596102442633
 20
572.4903818411609
 10
2054.596102442633
 20
584.6300138801382
 10
2020.55264592601
 20
584.6300138801382
  0
LWPOLYLINE
  5
C7
330
31
100
AcDbEntity
  8
一般
  6
Continuous
 62
     7
370
     9
100
AcDbPolyline
 90
        6
 70
   129
 43
0.0
 10
2063.326699729642
 20
552.1661156185862
 10
2063.326699729642
 20
523.1079203854651
 10
2031.685620924112
 20
523.1079203854651
 10
2031.685620924112
 20
517.5599514387875
 10
2022.955023637102
 20
517.5599514387875
 10
2022.955023637102
 20
552.1661156185862
  0
LWPOLYLINE
  5
C8
330
31
100
AcDbEntity
  8
一般
  6
Continuous
 62
     7
370
     9
100
AcDbPolyline
 90
        4
 70
   129
 43
0.0
 10
2031.685620924112
 20
531.2925545690625
 10
2054.596102442633
 20
531.2925545690625
 10
2054.596102442633
 20
543.9814814349888
 10
2031.685620924112
 20
543.9814814349888
  0
SPLINE
  5
C9
330
31
100
AcDbEntity
  8
一般
  6
Continuous
 62
     7
370
     9
100
AcDbSpline
210
0.0
220
0.0
230
1.0
 70
    11
 71
     2
 72
    82
 73
    79
 74
     0
 42
0.0000000001
 43
0.0000000001
 40
0.0
 40
0.0
 40
0.0
 40
1.0
 40
1.0
 40
2.0
 40
2.0
 40
3.0
 40
3.0
 40
4.0
 40
4.0
 40
5.0
 40
5.0
 40
6.0
 40
6.0
 40
7.0
 40
7.0
 40
8.0
 40
8.0
 40
9.0
 40
9.0
 40
10.0
 40
10.0
 40
11.0
 40
11.0
 40
12.0
 40
12.0
 40
13.0
 40
13.0
 40
14.0
 40
14.0
 40
15.0
 40
15.0
 40
16.0
 40
16.0
 40
17.0
 40
17.0
 40
18.0
 40
18.0
 40
19.0
 40
19.0
 40
20.0
 40
20.0
 40
21.0
 40
21.0
 40
22.0
 40
22.0
 40
23.0
 40
23.0
 40
24.0
 40
24.0
 40
25.0
 40
25.0
 40
26.0
 40
26.0
 40
27.0
 40
27.0
 40
28.0
 40
28.0
 40
29.0
 40
29.0
 40
30.0
 40
30.0
 40
31.0
 40
31.0
 40
32.0
 40
32.0
 40
33.0
 40
33.0
 40
34.0
 40
34.0
 40
35.0
 40
35.0
 40
36.0
 40
36.0
 40
37.0
 40
37.0
 40
38.0
 40
38.0
 40
39.0
 40
39.0
 40
39.0
 10
2211.587622614924
 20
596.6597654961979
 30
0.0
 10
2216.86112303314
 20
595.0118631340776
 30
0.0
 10
2213.638427273449
 20
594.1879030123812
 30
0.0
 10
2212.027079393604
 20
593.7759229515329
 30
0.0
 10
2210.415731513758
 20
593.3639428906847
 30
0.0
 10
2208.071939774397
 20
589.5188165175859
 30
0.0
 10
2205.728148035037
 20
585.6736901444872
 30
0.0
 10
2228.873021125632
 20
585.6736901444872
 30
0.0
 10
2252.017894216225
 20
585.6736901444872
 30
0.0
 10
2253.189785317391
 20
586.7722976796583
 30
0.0
 10
2254.361676418557
 20
587.8709052148292
 30
0.0
 10
2257.584381715277
 20
585.3990337903761
 30
0.0
 10
2260.807087011997
 20
582.9271623659228
 30
0.0
 10
2264.322779389552
 20
580.1806345873584
 30
0.0
 10
2260.807096549025
 20
579.3566834062985
 30
0.0
 10
2259.049255128763
 20
578.9447078157685
 30
0.0
 10
2257.2914137085
 20
578.5327322252385
 30
0.0
 10
2244.986547609232
 20
562.6028961433482
 30
0.0
 10
2237.662223458432
 20
555.7365945782105
 30
0.0
 10
2234.000061383032
 20
552.3034437956417
 30
0.0
 10
2230.337899307632
 20
548.870293013073
 30
0.0
 10
2222.134642525414
 20
541.1800402668754
 30
0.0
 10
2213.931395280225
 20
535.137689882798
 30
0.0
 10
2209.829771657632
 20
532.1165146907592
 30
0.0
 10
2205.728148035037
 20
529.0953394987204
 30
0.0
 10
2237.955191465208
 20
529.0953394987204
 30
0.0
 10
2270.18223489538
 20
529.0953394987204
 30
0.0
 10
2270.18223489538
 20
501.9047717110082
 30
0.0
 10
2270.18223489538
 20
474.7142039232961
 30
0.0
 10
2265.816936251875
 20
474.7142039232961
 30
0.0
 10
2261.45163760837
 20
474.7142039232961
 30
0.0
 10
2261.45163760837
 20
478.3121485183314
 30
0.0
 10
2261.45163760837
 20
481.9100931133668
 30
0.0
 10
2231.539088163179
 20
481.9100931133668
 30
0.0
 10
2201.626538717987
 20
481.9100931133668
 30
0.0
 10
2201.626538717987
 20
478.3121485183314
 30
0.0
 10
2201.626538717987
 20
474.7142039232961
 30
0.0
 10
2197.261240074481
 20
474.7142039232961
 30
0.0
 10
2192.895941430977
 20
474.7142039232961
 30
0.0
 10
2192.895941430977
 20
498.0596363972728
 30
0.0
 10
2192.895941430977
 20
521.4050688712497
 30
0.0
 10
2185.532553607669
 20
516.4613439036163
 30
0.0
 10
2181.27467052653
 20
514.2641198926378
 30
0.0
 10
2179.145728985961
 20
513.1655078871484
 30
0.0
 10
2177.016787445392
 20
512.066895881659
 30
0.0
 10
2169.399485750786
 20
508.2217784491968
 30
0.0
 10
2163.540030244958
 20
506.0245544382181
 30
0.0
 10
2160.610302492044
 20
504.9259424327288
 30
0.0
 10
2157.68057473913
 20
503.8273304272395
 30
0.0
 10
2155.629760543576
 20
507.3978093868636
 30
0.0
 10
2153.578946348021
 20
510.968288346488
 30
0.0
 10
2169.985440838398
 20
516.4613439036163
 30
0.0
 10
2176.723819438615
 20
520.3064702767153
 30
0.0
 10
2180.093008738724
 20
522.2290334632647
 30
0.0
 10
2183.462198038832
 20
524.151596649814
 30
0.0
 10
2198.110846340432
 20
532.3911621042336
 30
0.0
 10
2203.384365832706
 20
536.7856011855544
 30
0.0
 10
2206.021125578844
 20
538.9828207262148
 30
0.0
 10
2208.65788532498
 20
541.1800402668754
 30
0.0
 10
2198.110846340432
 20
549.9689005482442
 30
0.0
 10
2192.251390834603
 20
554.088683275454
 30
0.0
 10
2189.32166308169
 20
556.1485746390588
 30
0.0
 10
2186.391935328776
 20
558.2084660026636
 30
0.0
 10
2176.430851431838
 20
548.870293013073
 30
0.0
 10
2168.520572193426
 20
544.4758628723888
 30
0.0
 10
2164.56543257422
 20
542.2786478020465
 30
0.0
 10
2160.610292955014
 20
540.0814327317043
 30
0.0
 10
2158.266510752684
 20
543.3772553372176
 30
0.0
 10
2155.922728550352
 20
546.6730779427309
 30
0.0
 10
2174.087069229507
 20
556.5605457592708
 30
0.0
 10
2179.360579184752
 20
562.3282487298736
 30
0.0
 10
2181.997334162375
 20
565.2121002151752
 30
0.0
 10
2184.634089139998
 20
568.0959517004768
 30
0.0
 10
2197.524910326877
 20
582.3778496577006
 30
0.0
 10
2200.454638079791
 20
590.6174151121204
 30
0.0
 10
2201.919501956248
 20
594.7371978393301
 30
0.0
 10
2203.384365832706
 20
598.8569805665399
 30
0.0
 10
2207.485994223814
 20
597.7583730313688
 30
0.0
 10
2211.587622614924
 20
596.6597654961979
 30
0.0
  0
LWPOLYLINE
  5
CA
330
31
100
AcDbEntity
  8
一般
  6
Continuous
 62
     7
370
     9
100
AcDbPolyline
 90
        4
 70
   129
 43
0.0
 10
2201.626538717987
 20
490.0947272969642
 10
2261.45163760837
 20
490.0947272969642
 10
2261.45163760837
 20
520.9107053151231
 10
2201.626538717987
 20
520.9107053151231
  0
SPLINE
  5
CB
330
31
100
AcDbEntity
  8
一般
  6
Continuous
 62
     7
370
     9
100
AcDbSpline
210
0.0
220
0.0
230
1.0
 70
    11
 71
     2
 72
    22
 73
    19
 74
     0
 42
0.0000000001
 43
0.0000000001
 40
0.0
 40
0.0
 40
0.0
 40
1.0
 40
1.0
 40
2.0
 40
2.0
 40
3.0
 40
3.0
 40
4.0
 40
4.0
 40
5.0
 40
5.0
 40
6.0
 40
6.0
 40
7.0
 40
7.0
 40
8.0
 40
8.0
 40
9.0
 40
9.0
 40
9.0
 10
2202.21247473154
 20
577.4890559608896
 30
0.0
 10
2196.938955239265
 20
569.8354061806337
 30
0.0
 10
2194.009227486352
 20
566.7684549295764
 30
0.0
 10
2192.544363609894
 20
565.2349793040478
 30
0.0
 10
2191.079499733437
 20
563.7015036785193
 30
0.0
 10
2203.384365832706
 20
555.4619382240996
 30
0.0
 10
2209.53679888234
 20
551.0675080834151
 30
0.0
 10
2212.613015407157
 20
548.870293013073
 30
0.0
 10
2215.689231931974
 20
546.6730779427309
 30
0.0
 10
2221.54870651186
 20
551.0675080834151
 30
0.0
 10
2225.943302909747
 20
555.461947164736
 30
0.0
 10
2228.140601108689
 20
557.6591667053965
 30
0.0
 10
2230.337899307632
 20
559.8563862460569
 30
0.0
 10
2240.884919218122
 20
569.7072332153818
 30
0.0
 10
2243.814656508066
 20
573.5981445881356
 30
0.0
 10
2245.279525153037
 20
575.5436002745126
 30
0.0
 10
2246.744393798009
 20
577.4890559608896
 30
0.0
 10
2224.478434264775
 20
577.4890559608896
 30
0.0
 10
2202.21247473154
 20
577.4890559608896
 30
0.0
  0
ENDBLK
  5
CC
330
31
100
AcDbEntity
  8
一般
100
AcDbBlockEnd
  0
BLOCK
  5
CD
330
32
100
AcDbEntity
  8
一般
100
AcDbBlockBegin
  2
*U15
 70
     1
 10
0.0
 20
0.0
 30
0.0
  3
*U15
  1

  0
SPLINE
  5
CE
330
32
100
AcDbEntity
  8
一般
  6
Continuous
 62
     7
370
     9
100
AcDbSpline
210
0.0
220
0.0
230
1.0
 70
    11
 71
     2
 72
    50
 73
    47
 74
     0
 42
0.0000000001
 43
0.0000000001
 40
0.0
 40
0.0
 40
0.0
 40
1.0
 40
1.0
 40
2.0
 40
2.0
 40
3.0
 40
3.0
 40
4.0
 40
4.0
 40
5.0
 40
5.0
 40
6.0
 40
6.0
 40
7.0
 40
7.0
 40
8.0
 40
8.0
 40
9.0
 40
9.0
 40
10.0
 40
10.0
 40
11.0
 40
11.0
 40
12.0
 40
12.0
 40
13.0
 40
13.0
 40
14.0
 40
14.0
 40
15.0
 40
15.0
 40
16.0
 40
16.0
 40
17.0
 40
17.0
 40
18.0
 40
18.0
 40
19.0
 40
19.0
 40
20.0
 40
20.0
 40
21.0
 40
21.0
 40
22.0
 40
22.0
 40
23.0
 40
23.0
 40
23.0
 10
1765.339617373958
 20
-34.22323367770991
 30
0.0
 10
1789.36341355894
 20
-34.22323367770991
 30
0.0
 10
1813.387209743924
 20
-34.22323367770991
 30
0.0
 10
1813.387209743924
 20
-40.6592492287101
 30
0.0
 10
1813.387209743924
 20
-47.09526477971031
 30
0.0
 10
1789.36341355894
 20
-47.09526477971031
 30
0.0
 10
1765.339617373958
 20
-47.09526477971031
 30
0.0
 10
1765.339617373958
 20
-85.01557986990269
 30
0.0
 10
1746.882318225055
 20
-94.50022730771618
 30
0.0
 10
1737.653668650604
 20
-99.24255102662286
 30
0.0
 10
1728.425019076153
 20
-103.9848747455296
 30
0.0
 10
1723.737445134461
 20
-99.59044460484527
 30
0.0
 10
1719.049871192769
 20
-95.19601446416094
 30
0.0
 10
1751.68707364724
 20
-77.89293237426157
 30
0.0
 10
1751.394105640463
 20
-62.49409857698606
 30
0.0
 10
1751.247621637075
 20
-54.79468167834817
 30
0.0
 10
1751.101137633687
 20
-47.09526477971031
 30
0.0
 10
1722.184692763377
 20
-47.09526477971031
 30
0.0
 10
1693.268247893067
 20
-47.09526477971031
 30
0.0
 10
1693.268247893067
 20
-40.6592492287101
 30
0.0
 10
1693.268247893067
 20
-34.22323367770991
 30
0.0
 10
1722.438597097646
 20
-34.22323367770991
 30
0.0
 10
1751.608946302225
 20
-34.22323367770991
 30
0.0
 10
1751.608946302225
 20
-23.78645315294807
 30
0.0
 10
1751.608946302225
 20
-13.34967262818622
 30
0.0
 10
1735.300110993117
 20
-14.99757499030647
 30
0.0
 10
1722.194449144474
 20
-15.54687875789181
 30
0.0
 10
1715.641618220153
 20
-15.8215306416846
 30
0.0
 10
1709.088787295833
 20
-16.09618252547738
 30
0.0
 10
1706.452027549695
 20
-10.32848849551101
 30
0.0
 10
1703.815267803558
 20
-4.560794465544631
 30
0.0
 10
1760.652052969295
 20
-3.462186930373491
 30
0.0
 10
1775.886646821477
 20
0.9322432103108441
 30
0.0
 10
1783.503943747568
 20
3.129458280653012
 30
0.0
 10
1791.121240673659
 20
5.326673350995179
 30
0.0
 10
1794.34394597038
 20
-0.441020678971313
 30
0.0
 10
1797.566651267099
 20
-6.208714708937804
 30
0.0
 10
1799.324497455877
 20
-10.05385002267303
 30
0.0
 10
1795.808824152381
 20
-8.680586133390761
 30
0.0
 10
1794.050987500632
 20
-7.99395418874974
 30
0.0
 10
1792.293150848884
 20
-7.307322244108718
 30
0.0
 10
1779.988265675557
 20
-10.05385002267303
 30
0.0
 10
1772.663941524757
 20
-10.87780120373304
 30
0.0
 10
1769.001779449357
 20
-11.28977679426316
 30
0.0
 10
1765.339617373958
 20
-11.70175238479328
 30
0.0
 10
1765.339617373958
 20
-22.9624930312516
 30
0.0
 10
1765.339617373958
 20
-34.22323367770991
 30
0.0
  0
LWPOLYLINE
  5
CF
330
32
100
AcDbEntity
  8
一般
  6
Continuous
 62
     7
370
     9
100
AcDbPolyline
 90
        4
 70
   129
 43
0.0
 10
1838.013478400792
 20
-51.48969492039464
 10
1838.013478400792
 20
-38.61766381839425
 10
1968.679460162139
 20
-38.61766381839425
 10
1968.679460162139
 20
-51.48969492039464
  0
SPLINE
  5
D0
330
32
100
AcDbEntity
  8
一般
  6
Continuous
 62
     7
370
     9
100
AcDbSpline
210
0.0
220
0.0
230
1.0
 70
    11
 71
     2
 72
    44
 73
    41
 74
     0
 42
0.0000000001
 43
0.0000000001
 40
0.0
 40
0.0
 40
0.0
 40
1.0
 40
1.0
 40
2.0
 40
2.0
 40
3.0
 40
3.0
 40
4.0
 40
4.0
 40
5.0
 40
5.0
 40
6.0
 40
6.0
 40
7.0
 40
7.0
 40
8.0
 40
8.0
 40
9.0
 40
9.0
 40
10.0
 40
10.0
 40
11.0
 40
11.0
 40
12.0
 40
12.0
 40
13.0
 40
13.0
 40
14.0
 40
14.0
 40
15.0
 40
15.0
 40
16.0
 40
16.0
 40
17.0
 40
17.0
 40
18.0
 40
18.0
 40
19.0
 40
19.0
 40
20.0
 40
20.0
 40
20.0
 10
1989.204119501958
 20
-75.97035577675727
 30
0.0
 10
2001.508985601227
 20
-75.69570836328285
 30
0.0
 10
2013.813851700495
 20
-75.42106094980841
 30
0.0
 10
2034.907910595534
 20
-32.57531343431674
 30
0.0
 10
2040.474407631616
 20
-10.32848849551101
 30
0.0
 10
2043.257656149656
 20
0.794923973891855
 30
0.0
 10
2046.040904667696
 20
11.91833644329472
 30
0.0
 10
2052.779283267912
 20
9.72111243231609
 30
0.0
 10
2059.517661868129
 20
7.523888421337459
 30
0.0
 10
2064.791181360404
 20
4.228065815824039
 30
0.0
 10
2061.568476063684
 20
3.404114634764027
 30
0.0
 10
2059.957123415324
 20
2.992139044234022
 30
0.0
 10
2058.345770766964
 20
2.580163453704016
 30
0.0
 10
2047.212795768861
 20
-36.4204487480522
 30
0.0
 10
2037.837657422508
 20
-55.37145108134473
 30
0.0
 10
2033.15008824933
 20
-64.846952247991
 30
0.0
 10
2028.462519076153
 20
-74.32245341463726
 30
0.0
 10
2058.931716317547
 20
-72.94918952535512
 30
0.0
 10
2089.400913558941
 20
-71.57592563607295
 30
0.0
 10
2077.096047459672
 20
-56.19540226240474
 30
0.0
 10
2073.580364619146
 20
-52.62492330278042
 30
0.0
 10
2071.822523198883
 20
-50.83968382296825
 30
0.0
 10
2070.06468177862
 20
-49.05444434315609
 30
0.0
 10
2075.924146821477
 20
-45.20931797005732
 30
0.0
 10
2081.783611864334
 20
-41.36419159695856
 30
0.0
 10
2101.705779658208
 20
-61.68845781953314
 30
0.0
 10
2110.787949997786
 20
-75.42106094980841
 30
0.0
 10
2115.329035167575
 20
-82.28736251494591
 30
0.0
 10
2119.870120337364
 20
-89.15366408008344
 30
0.0
 10
2113.424709743923
 20
-93.27344680729323
 30
0.0
 10
2106.979299150483
 20
-97.39322953450301
 30
0.0
 10
2102.291725208792
 20
-90.25227161525448
 30
0.0
 10
2097.6041512671
 20
-83.11131369600593
 30
0.0
 10
2048.384677332997
 20
-86.68179265563026
 30
0.0
 10
1999.165203398895
 20
-90.25227161525457
 30
0.0
 10
1995.649530095398
 20
-95.74532717238298
 30
0.0
 10
1994.770607001009
 20
-92.99879939381868
 30
0.0
 10
1994.331145453815
 20
-91.62553550453663
 30
0.0
 10
1993.891683906621
 20
-90.25227161525457
 30
0.0
 10
1991.547901704289
 20
-83.11131369600593
 30
0.0
 10
1989.204119501958
 20
-75.97035577675727
 30
0.0
  0
SPLINE
  5
D1
330
32
100
AcDbEntity
  8
一般
  6
Continuous
 62
     7
370
     9
100
AcDbSpline
210
0.0
220
0.0
230
1.0
 70
    11
 71
     2
 72
    66
 73
    63
 74
     0
 42
0.0000000001
 43
0.0000000001
 40
0.0
 40
0.0
 40
0.0
 40
1.0
 40
1.0
 40
2.0
 40
2.0
 40
3.0
 40
3.0
 40
4.0
 40
4.0
 40
5.0
 40
5.0
 40
6.0
 40
6.0
 40
7.0
 40
7.0
 40
8.0
 40
8.0
 40
9.0
 40
9.0
 40
10.0
 40
10.0
 40
11.0
 40
11.0
 40
12.0
 40
12.0
 40
13.0
 40
13.0
 40
14.0
 40
14.0
 40
15.0
 40
15.0
 40
16.0
 40
16.0
 40
17.0
 40
17.0
 40
18.0
 40
18.0
 40
19.0
 40
19.0
 40
20.0
 40
20.0
 40
21.0
 40
21.0
 40
22.0
 40
22.0
 40
23.0
 40
23.0
 40
24.0
 40
24.0
 40
25.0
 40
25.0
 40
26.0
 40
26.0
 40
27.0
 40
27.0
 40
28.0
 40
28.0
 40
29.0
 40
29.0
 40
30.0
 40
30.0
 40
31.0
 40
31.0
 40
31.0
 10
2245.279119064769
 20
-2.36357939520235
 30
0.0
 10
2225.356951270895
 20
-29.27949082880354
 30
0.0
 10
2212.173162077238
 20
-38.61766381839447
 30
0.0
 10
2205.581267480408
 20
-43.28675031318982
 30
0.0
 10
2198.98937288358
 20
-47.95583680798517
 30
0.0
 10
2226.235874365284
 20
-47.95583680798517
 30
0.0
 10
2253.482375846986
 20
-47.95583680798517
 30
0.0
 10
2253.482375846986
 20
-76.51966848497941
 30
0.0
 10
2253.482375846986
 20
-105.0835001619736
 30
0.0
 10
2247.242049534211
 20
-105.0835001619736
 30
0.0
 10
2241.001723221434
 20
-105.0835001619736
 30
0.0
 10
2241.001723221434
 20
-102.657404796539
 30
0.0
 10
2241.001723221434
 20
-100.2313094311043
 30
0.0
 10
2214.722038097263
 20
-100.2313094311043
 30
0.0
 10
2188.44235297309
 20
-100.2313094311043
 30
0.0
 10
2188.44235297309
 20
-103.4813559775991
 30
0.0
 10
2188.44235297309
 20
-106.7314025240939
 30
0.0
 10
2182.202026660314
 20
-106.7314025240939
 30
0.0
 10
2175.961700347538
 20
-106.7314025240939
 30
0.0
 10
2175.961700347538
 20
-84.48457758528808
 30
0.0
 10
2175.961700347538
 20
-62.23775264648224
 30
0.0
 10
2158.793464243265
 20
-71.57592563607295
 30
0.0
 10
2151.644926618749
 20
-74.04779706052612
 30
0.0
 10
2148.070657806492
 20
-75.28373277275273
 30
0.0
 10
2144.496388994233
 20
-76.51966848497932
 30
0.0
 10
2142.152606791901
 20
-70.20267068742737
 30
0.0
 10
2139.808824589571
 20
-63.88567288987542
 30
0.0
 10
2167.34829407805
 20
-56.74471497062677
 30
0.0
 10
2180.239105727901
 20
-47.13188562692518
 30
0.0
 10
2186.684511552828
 20
-42.32547095507425
 30
0.0
 10
2193.129917377752
 20
-37.51905628322333
 30
0.0
 10
2187.856397885477
 20
-32.02601860736786
 30
0.0
 10
2180.825041741455
 20
-27.63157952604683
 30
0.0
 10
2177.309363669444
 20
-25.43435998538644
 30
0.0
 10
2173.793685597432
 20
-23.23714044472603
 30
0.0
 10
2162.074774585776
 20
-33.67392096948787
 30
0.0
 10
2155.043418441753
 20
-37.24439992911221
 30
0.0
 10
2151.527740369741
 20
-39.02963940892437
 30
0.0
 10
2148.01206229773
 20
-40.81487888873652
 30
0.0
 10
2144.203411450428
 20
-36.4204487480522
 30
0.0
 10
2140.394760603125
 20
-32.02601860736786
 30
0.0
 10
2172.621794496266
 20
-16.64549523369965
 30
0.0
 10
2179.067205089706
 20
0.1082830886141437
 30
0.0
 10
2182.289910386427
 20
8.485172249771153
 30
0.0
 10
2185.512615683147
 20
16.86206141092816
 30
0.0
 10
2191.958026276587
 20
15.48880646228258
 30
0.0
 10
2198.403436870027
 20
14.115551513637
 30
0.0
 10
2200.747219072359
 20
11.91833644329472
 30
0.0
 10
2198.696404876804
 20
11.64368008918359
 30
0.0
 10
2197.670997779027
 20
11.50635191212814
 30
0.0
 10
2196.645590681249
 20
11.36902373507268
 30
0.0
 10
2195.473699580083
 20
8.897152310619501
 30
0.0
 10
2194.301808478918
 20
6.425280886166319
 30
0.0
 10
2213.931008266015
 20
6.425280886166319
 30
0.0
 10
2233.560208053113
 20
6.425280886166319
 30
0.0
 10
2234.146153603695
 20
7.523888421337345
 30
0.0
 10
2234.732099154278
 20
8.622495956508373
 30
0.0
 10
2240.884532203912
 20
4.502713229298592
 30
0.0
 10
2247.036965253546
 20
0.3829305020888114
 30
0.0
 10
2249.380747455878
 20
-1.814284568253469
 30
0.0
 10
2247.329933260324
 20
-2.08893198172791
 30
0.0
 10
2246.304526162546
 20
-2.22625568846513
 30
0.0
 10
2245.279119064769
 20
-2.36357939520235
 30
0.0
  0
LWPOLYLINE
  5
D2
330
32
100
AcDbEntity
  8
一般
  6
Continuous
 62
     7
370
     9
100
AcDbPolyline
 90
        4
 70
   129
 43
0.0
 10
2241.001723221434
 20
-58.48416945078384
 10
2188.44235297309
 20
-58.48416945078384
 10
2188.44235297309
 20
-89.70297678830547
 10
2241.001723221434
 20
-89.70297678830547
  0
SPLINE
  5
D3
330
32
100
AcDbEntity
  8
一般
  6
Continuous
 62
     7
370
     9
100
AcDbSpline
210
0.0
220
0.0
230
1.0
 70
    11
 71
     2
 72
    16
 73
    13
 74
     0
 42
0.0000000001
 43
0.0000000001
 40
0.0
 40
0.0
 40
0.0
 40
1.0
 40
1.0
 40
2.0
 40
2.0
 40
3.0
 40
3.0
 40
4.0
 40
4.0
 40
5.0
 40
5.0
 40
6.0
 40
6.0
 40
6.0
 10
2203.091001274689
 20
-29.82880353702557
 30
0.0
 10
2215.98182246157
 20
-18.33003632430745
 30
0.0
 10
2221.841277967398
 20
-11.21654404046989
 30
0.0
 10
2224.771005720311
 20
-7.659797898551231
 30
0.0
 10
2227.700733473226
 20
-4.103051756632567
 30
0.0
 10
2208.364511229935
 20
-4.103051756632567
 30
0.0
 10
2189.028288986644
 20
-4.103051756632567
 30
0.0
 10
2184.633692588758
 20
-9.824969727580535
 30
0.0
 10
2180.239096190872
 20
-15.5468876985285
 30
0.0
 10
2193.129917377752
 20
-22.13853290955489
 30
0.0
 10
2198.110459326221
 20
-25.98366822329012
 30
0.0
 10
2200.600730300455
 20
-27.90623588015785
 30
0.0
 10
2203.091001274689
 20
-29.82880353702557
 30
0.0
  0
ENDBLK
  5
D4
330
32
100
AcDbEntity
  8
一般
100
AcDbBlockEnd
  0
BLOCK
  5
D5
330
33
100
AcDbEntity
  8
一般
100
AcDbBlockBegin
  2
*U16
 70
     1
 10
0.0
 20
0.0
 30
0.0
  3
*U16
  1

  0
SPLINE
  5
D6
330
33
100
AcDbEntity
  8
一般
  6
Continuous
 62
     7
370
     9
100
AcDbSpline
210
0.0
220
0.0
230
1.0
 70
    11
 71
     2
 72
    42
 73
    39
 74
     0
 42
0.0000000001
 43
0.0000000001
 40
0.0
 40
0.0
 40
0.0
 40
1.0
 40
1.0
 40
2.0
 40
2.0
 40
3.0
 40
3.0
 40
4.0
 40
4.0
 40
5.0
 40
5.0
 40
6.0
 40
6.0
 40
7.0
 40
7.0
 40
8.0
 40
8.0
 40
9.0
 40
9.0
 40
10.0
 40
10.0
 40
11.0
 40
11.0
 40
12.0
 40
12.0
 40
13.0
 40
13.0
 40
14.0
 40
14.0
 40
15.0
 40
15.0
 40
16.0
 40
16.0
 40
17.0
 40
17.0
 40
18.0
 40
18.0
 40
19.0
 40
19.0
 40
19.0
 10
566.441014524519
 20
-1574.795368788877
 30
0.0
 10
578.5701131715622
 20
-1574.795368788877
 30
0.0
 10
581.7342229595213
 20
-1577.761612710093
 30
0.0
 10
583.3162778535007
 20
-1579.244734670702
 30
0.0
 10
584.89833274748
 20
-1580.72785663131
 30
0.0
 10
592.808592911833
 20
-1588.143453023396
 30
0.0
 10
592.808592911833
 20
-1593.334377650366
 30
0.0
 10
592.808592911833
 20
-1595.929839963851
 30
0.0
 10
592.808592911833
 20
-1598.525302277336
 30
0.0
 10
592.808592911833
 20
-1607.918406537749
 30
0.0
 10
589.9081629132997
 20
-1610.637468680902
 30
0.0
 10
588.4579479140329
 20
-1611.996999752479
 30
0.0
 10
587.0077329147664
 20
-1613.356530824056
 30
0.0
 10
582.2615730013427
 20
-1617.805892235562
 30
0.0
 10
580.6795133388487
 20
-1618.300264732325
 30
0.0
 10
579.8884835076016
 20
-1618.547450980707
 30
0.0
 10
579.0974536763545
 20
-1618.794637229089
 30
0.0
 10
584.89833274748
 20
-1621.760890090942
 30
0.0
 10
586.7440626623702
 20
-1623.491198299932
 30
0.0
 10
587.6669276198153
 20
-1624.356352404427
 30
0.0
 10
588.5897925772605
 20
-1625.221506508922
 30
0.0
 10
595.4453526579704
 20
-1631.648357907482
 30
0.0
 10
595.4453526579704
 20
-1637.333655031215
 30
0.0
 10
595.4453526579704
 20
-1640.176303593081
 30
0.0
 10
595.4453526579704
 20
-1643.018952154948
 30
0.0
 10
595.4453526579704
 20
-1655.378309277214
 30
0.0
 10
592.0175726176153
 20
-1658.591734976494
 30
0.0
 10
590.3036825974379
 20
-1660.198447826134
 30
0.0
 10
588.5897925772605
 20
-1661.805160675774
 30
0.0
 10
578.5701131715622
 20
-1671.161644088972
 30
0.0
 10
571.978213806219
 20
-1671.161644088972
 30
0.0
 10
568.6822641235473
 20
-1671.161644088972
 30
0.0
 10
565.3863144408758
 20
-1671.161644088972
 30
0.0
 10
552.0267482579645
 20
-1671.161644088972
 30
0.0
 10
538.6671820750532
 20
-1671.161644088972
 30
0.0
 10
538.6671820750532
 20
-1622.978506438924
 30
0.0
 10
538.6671820750532
 20
-1574.795368788877
 30
0.0
 10
552.5540982997861
 20
-1574.795368788877
 30
0.0
 10
566.441014524519
 20
-1574.795368788877
 30
0.0
  0
SPLINE
  5
D7
330
33
100
AcDbEntity
  8
一般
  6
Continuous
 62
     7
370
     9
100
AcDbSpline
210
0.0
220
0.0
230
1.0
 70
    11
 71
     2
 72
    26
 73
    23
 74
     0
 42
0.0000000001
 43
0.0000000001
 40
0.0
 40
0.0
 40
0.0
 40
1.0
 40
1.0
 40
2.0
 40
2.0
 40
3.0
 40
3.0
 40
4.0
 40
4.0
 40
5.0
 40
5.0
 40
6.0
 40
6.0
 40
7.0
 40
7.0
 40
8.0
 40
8.0
 40
9.0
 40
9.0
 40
10.0
 40
10.0
 40
11.0
 40
11.0
 40
11.0
 10
551.1478347006049
 20
-1622.713014237254
 30
0.0
 10
551.1478347006049
 20
-1642.259087456513
 30
0.0
 10
551.1478347006049
 20
-1661.805160675774
 30
0.0
 10
557.2123744870973
 20
-1661.805160675774
 30
0.0
 10
563.2769142735896
 20
-1661.805160675774
 30
0.0
 10
572.2418935956445
 20
-1661.805160675774
 30
0.0
 10
575.4060033836033
 20
-1658.838916754557
 30
0.0
 10
576.9880582775828
 20
-1657.355794793949
 30
0.0
 10
578.5701131715622
 20
-1655.872672833341
 30
0.0
 10
583.8436326638369
 20
-1650.928947865707
 30
0.0
 10
583.8436326638369
 20
-1646.973950010328
 30
0.0
 10
583.8436326638369
 20
-1644.996451082637
 30
0.0
 10
583.8436326638369
 20
-1643.018952154948
 30
0.0
 10
583.8436326638369
 20
-1634.120229331935
 30
0.0
 10
580.9431931282741
 20
-1631.401176129418
 30
0.0
 10
579.4929733604927
 20
-1630.04164952816
 30
0.0
 10
578.0427535927112
 20
-1628.682122926901
 30
0.0
 10
571.7145340167935
 20
-1622.713014237254
 30
0.0
 10
568.5504242288345
 20
-1622.713014237254
 30
0.0
 10
566.9683693348552
 20
-1622.713014237254
 30
0.0
 10
565.3863144408758
 20
-1622.713014237254
 30
0.0
 10
558.2670745707402
 20
-1622.713014237254
 30
0.0
 10
551.1478347006049
 20
-1622.713014237254
 30
0.0
  0
SPLINE
  5
D8
330
33
100
AcDbEntity
  8
一般
  6
Continuous
 62
     7
370
     9
100
AcDbSpline
210
0.0
220
0.0
230
1.0
 70
    11
 71
     2
 72
    26
 73
    23
 74
     0
 42
0.0000000001
 43
0.0000000001
 40
0.0
 40
0.0
 40
0.0
 40
1.0
 40
1.0
 40
2.0
 40
2.0
 40
3.0
 40
3.0
 40
4.0
 40
4.0
 40
5.0
 40
5.0
 40
6.0
 40
6.0
 40
7.0
 40
7.0
 40
8.0
 40
8.0
 40
9.0
 40
9.0
 40
10.0
 40
10.0
 40
11.0
 40
11.0
 40
11.0
 10
566.96837410337
 20
-1613.356530824056
 30
0.0
 10
572.7692341004367
 20
-1613.356530824056
 30
0.0
 10
574.8786438047525
 20
-1611.379031896365
 30
0.0
 10
575.9333486569103
 20
-1610.390282432521
 30
0.0
 10
576.988053509068
 20
-1609.401532968676
 30
0.0
 10
581.7342134224916
 20
-1604.952171557169
 30
0.0
 10
581.7342134224916
 20
-1601.738736917252
 30
0.0
 10
581.7342134224916
 20
-1600.132019597294
 30
0.0
 10
581.7342134224916
 20
-1598.525302277336
 30
0.0
 10
581.7342134224916
 20
-1592.098450878776
 30
0.0
 10
579.8884835076014
 20
-1590.368142669786
 30
0.0
 10
578.9656185501563
 20
-1589.502988565292
 30
0.0
 10
578.0427535927112
 20
-1588.637834460797
 30
0.0
 10
573.2965936792878
 20
-1584.151852202075
 30
0.0
 10
570.923513722576
 20
-1584.151852202075
 30
0.0
 10
569.7369737442199
 20
-1584.151852202075
 30
0.0
 10
568.5504337658641
 20
-1584.151852202075
 30
0.0
 10
559.8491342332344
 20
-1584.151852202075
 30
0.0
 10
551.1478347006049
 20
-1584.151852202075
 30
0.0
 10
551.1478347006049
 20
-1598.754191513065
 30
0.0
 10
551.1478347006049
 20
-1613.356530824056
 30
0.0
 10
559.0581044019875
 20
-1613.356530824056
 30
0.0
 10
566.96837410337
 20
-1613.356530824056
 30
0.0
  0
SPLINE
  5
D9
330
33
100
AcDbEntity
  8
一般
  6
Continuous
 62
     7
370
     9
100
AcDbSpline
210
0.0
220
0.0
230
1.0
 70
    11
 71
     2
 72
    66
 73
    63
 74
     0
 42
0.0000000001
 43
0.0000000001
 40
0.0
 40
0.0
 40
0.0
 40
1.0
 40
1.0
 40
2.0
 40
2.0
 40
3.0
 40
3.0
 40
4.0
 40
4.0
 40
5.0
 40
5.0
 40
6.0
 40
6.0
 40
7.0
 40
7.0
 40
8.0
 40
8.0
 40
9.0
 40
9.0
 40
10.0
 40
10.0
 40
11.0
 40
11.0
 40
12.0
 40
12.0
 40
13.0
 40
13.0
 40
14.0
 40
14.0
 40
15.0
 40
15.0
 40
16.0
 40
16.0
 40
17.0
 40
17.0
 40
18.0
 40
18.0
 40
19.0
 40
19.0
 40
20.0
 40
20.0
 40
21.0
 40
21.0
 40
22.0
 40
22.0
 40
23.0
 40
23.0
 40
24.0
 40
24.0
 40
25.0
 40
25.0
 40
26.0
 40
26.0
 40
27.0
 40
27.0
 40
28.0
 40
28.0
 40
29.0
 40
29.0
 40
30.0
 40
30.0
 40
31.0
 40
31.0
 40
31.0
 10
617.5618846169619
 20
-1608.412787975149
 30
0.0
 10
636.0191837658641
 20
-1591.604069441376
 30
0.0
 10
640.2379936374662
 20
-1580.975029468737
 30
0.0
 10
642.3473985732671
 20
-1575.660509482417
 30
0.0
 10
644.456803509068
 20
-1570.345989496097
 30
0.0
 10
650.2576730431643
 20
-1572.323488423787
 30
0.0
 10
656.0585425772605
 20
-1574.300987351477
 30
0.0
 10
658.1679427445468
 20
-1576.27847733853
 30
0.0
 10
656.3222128296565
 20
-1576.52566805723
 30
0.0
 10
655.3993478722114
 20
-1576.64926341658
 30
0.0
 10
654.4764829147664
 20
-1576.772858775931
 30
0.0
 10
651.3123731268075
 20
-1582.2109741216
 30
0.0
 10
648.1482633388488
 20
-1587.64908946727
 30
0.0
 10
679.7893516814078
 20
-1587.64908946727
 30
0.0
 10
711.4304400239673
 20
-1587.64908946727
 30
0.0
 10
711.4304400239673
 20
-1592.327331173869
 30
0.0
 10
711.4304400239673
 20
-1597.005572880468
 30
0.0
 10
692.7094610856395
 20
-1597.005572880468
 30
0.0
 10
673.9884821473116
 20
-1597.005572880468
 30
0.0
 10
673.9884821473116
 20
-1609.136040767005
 30
0.0
 10
673.9884821473116
 20
-1621.266508653542
 30
0.0
 10
699.8287104928042
 20
-1621.266508653542
 30
0.0
 10
725.6689388382969
 20
-1621.266508653542
 30
0.0
 10
725.6689388382969
 20
-1625.944750360141
 30
0.0
 10
725.6689388382969
 20
-1630.62299206674
 30
0.0
 10
700.8834201134768
 20
-1630.62299206674
 30
0.0
 10
676.0979013886569
 20
-1630.62299206674
 30
0.0
 10
690.3363811289276
 20
-1662.793923550573
 30
0.0
 10
708.2663397730377
 20
-1665.51297675309
 30
0.0
 10
717.2313190950927
 20
-1666.872503354348
 30
0.0
 10
726.1962984171476
 20
-1668.232029955607
 30
0.0
 10
723.8232089234067
 20
-1674.16451779804
 30
0.0
 10
721.4501194296655
 20
-1680.097005640473
 30
0.0
 10
686.6449212991473
 20
-1673.175772804513
 30
0.0
 10
678.2073015559431
 20
-1656.36705427074
 30
0.0
 10
673.9884916843412
 20
-1647.962695003854
 30
0.0
 10
669.7696818127391
 20
-1639.558335736968
 30
0.0
 10
659.750002407041
 20
-1670.20951994266
 30
0.0
 10
636.8102135971113
 20
-1676.389198503793
 30
0.0
 10
625.3403191921464
 20
-1679.47903778436
 30
0.0
 10
613.8704247871815
 20
-1682.568877064926
 30
0.0
 10
612.0246853352618
 20
-1676.883571000557
 30
0.0
 10
610.1789458833422
 20
-1671.198264936187
 30
0.0
 10
654.4764829147664
 20
-1662.299542113174
 30
0.0
 10
658.1679427445468
 20
-1646.461267089957
 30
0.0
 10
660.0136726594371
 20
-1638.542129578349
 30
0.0
 10
661.8594025743272
 20
-1630.62299206674
 30
0.0
 10
636.2828540182603
 20
-1630.62299206674
 30
0.0
 10
610.7063054621931
 20
-1630.62299206674
 30
0.0
 10
610.7063054621931
 20
-1625.944750360141
 30
0.0
 10
610.7063054621931
 20
-1621.266508653542
 30
0.0
 10
636.7320767150667
 20
-1621.266508653542
 30
0.0
 10
662.7578479679405
 20
-1621.266508653542
 30
0.0
 10
662.7578479679405
 20
-1609.136040767005
 30
0.0
 10
662.7578479679405
 20
-1597.005572880468
 30
0.0
 10
652.5526256548612
 20
-1597.005572880468
 30
0.0
 10
642.3474033417817
 20
-1597.005572880468
 30
0.0
 10
633.909764524519
 20
-1608.888858988941
 30
0.0
 10
629.690954652917
 20
-1612.605812396788
 30
0.0
 10
627.5815497171159
 20
-1614.464289100712
 30
0.0
 10
625.4721447813148
 20
-1616.322765804635
 30
0.0
 10
621.5170146991384
 20
-1612.367776889892
 30
0.0
 10
617.5618846169619
 20
-1608.412787975149
 30
0.0
  0
SPLINE
  5
DA
330
33
100
AcDbEntity
  8
一般
  6
Continuous
 62
     7
370
     9
100
AcDbSpline
210
0.0
220
0.0
230
1.0
 70
    11
 71
     2
 72
    60
 73
    57
 74
     0
 42
0.0000000001
 43
0.0000000001
 40
0.0
 40
0.0
 40
0.0
 40
1.0
 40
1.0
 40
2.0
 40
2.0
 40
3.0
 40
3.0
 40
4.0
 40
4.0
 40
5.0
 40
5.0
 40
6.0
 40
6.0
 40
7.0
 40
7.0
 40
8.0
 40
8.0
 40
9.0
 40
9.0
 40
10.0
 40
10.0
 40
11.0
 40
11.0
 40
12.0
 40
12.0
 40
13.0
 40
13.0
 40
14.0
 40
14.0
 40
15.0
 40
15.0
 40
16.0
 40
16.0
 40
17.0
 40
17.0
 40
18.0
 40
18.0
 40
19.0
 40
19.0
 40
20.0
 40
20.0
 40
21.0
 40
21.0
 40
22.0
 40
22.0
 40
23.0
 40
23.0
 40
24.0
 40
24.0
 40
25.0
 40
25.0
 40
26.0
 40
26.0
 40
27.0
 40
27.0
 40
28.0
 40
28.0
 40
28.0
 10
772.0995782939518
 20
-1569.851625939971
 30
0.0
 10
776.3183977025833
 20
-1570.345989496097
 30
0.0
 10
774.4726677876931
 20
-1571.581925208324
 30
0.0
 10
773.5498028302478
 20
-1572.199893064437
 30
0.0
 10
772.6269378728028
 20
-1572.81786092055
 30
0.0
 10
772.6269378728028
 20
-1581.7165926842
 30
0.0
 10
772.6269378728028
 20
-1590.61532444785
 30
0.0
 10
778.4277978698695
 20
-1590.61532444785
 30
0.0
 10
784.2286578669361
 20
-1590.61532444785
 30
0.0
 10
785.2833674876087
 20
-1589.626579454323
 30
0.0
 10
786.3380771082816
 20
-1588.637834460797
 30
0.0
 10
790.2932071904579
 20
-1591.851260160076
 30
0.0
 10
794.2483372726344
 20
-1595.064685859356
 30
0.0
 10
793.1936371889912
 20
-1595.80624907482
 30
0.0
 10
792.1389371053483
 20
-1596.547812290283
 30
0.0
 10
783.7013173621442
 20
-1611.379022955729
 30
0.0
 10
778.1641276174735
 20
-1617.064329020099
 30
0.0
 10
775.3955327451381
 20
-1619.906982052284
 30
0.0
 10
772.6269378728028
 20
-1622.749635084469
 30
0.0
 10
772.6269378728028
 20
-1623.738380077995
 30
0.0
 10
772.6269378728028
 20
-1624.727125071522
 30
0.0
 10
783.7013173621442
 20
-1628.682122926901
 30
0.0
 10
788.7111570649931
 20
-1631.895548626181
 30
0.0
 10
791.2160769164176
 20
-1633.502261475822
 30
0.0
 10
793.7209967678422
 20
-1635.108974325461
 30
0.0
 10
790.5568869798834
 20
-1640.052717174368
 30
0.0
 10
787.3927771919244
 20
-1644.996460023275
 30
0.0
 10
781.0645576160068
 20
-1639.063972180841
 30
0.0
 10
776.8457477444051
 20
-1636.592100756388
 30
0.0
 10
774.7363428086038
 20
-1635.356165044161
 30
0.0
 10
772.6269378728028
 20
-1634.120229331935
 30
0.0
 10
772.6269378728028
 20
-1658.838925695194
 30
0.0
 10
772.6269378728028
 20
-1683.557622058453
 30
0.0
 10
767.0116207831171
 20
-1683.557622058453
 30
0.0
 10
761.3963036934316
 20
-1683.557622058453
 30
0.0
 10
761.3963036934316
 20
-1658.097362479731
 30
0.0
 10
761.3963036934316
 20
-1632.637102901008
 30
0.0
 10
754.3063425036178
 20
-1639.558335736968
 30
0.0
 10
749.7554914157023
 20
-1642.771770376884
 30
0.0
 10
747.4800658717445
 20
-1644.378487696843
 30
0.0
 10
745.2046403277867
 20
-1645.985205016801
 30
0.0
 10
742.8315603710748
 20
-1640.794280389831
 30
0.0
 10
740.4584804143629
 20
-1635.603355762861
 30
0.0
 10
765.2439991391831
 20
-1620.753816792535
 30
0.0
 10
771.3085484627046
 20
-1610.362812326791
 30
0.0
 10
774.3408231244655
 20
-1605.16731009392
 30
0.0
 10
777.3730977862261
 20
-1599.971807861048
 30
0.0
 10
761.0251988046104
 20
-1599.971807861048
 30
0.0
 10
744.6772998229945
 20
-1599.971807861048
 30
0.0
 10
744.6772998229945
 20
-1595.293566154449
 30
0.0
 10
744.6772998229945
 20
-1590.61532444785
 30
0.0
 10
753.036801758213
 20
-1590.61532444785
 30
0.0
 10
761.3963036934316
 20
-1590.61532444785
 30
0.0
 10
761.3963036934316
 20
-1580.23347519391
 30
0.0
 10
761.3963036934316
 20
-1569.851625939971
 30
0.0
 10
766.7479409936916
 20
-1569.851625939971
 30
0.0
 10
772.0995782939518
 20
-1569.851625939971
 30
0.0
  0
SPLINE
  5
DB
330
33
100
AcDbEntity
  8
一般
  6
Continuous
 62
     7
370
     9
100
AcDbSpline
210
0.0
220
0.0
230
1.0
 70
    11
 71
     2
 72
    60
 73
    57
 74
     0
 42
0.0000000001
 43
0.0000000001
 40
0.0
 40
0.0
 40
0.0
 40
1.0
 40
1.0
 40
2.0
 40
2.0
 40
3.0
 40
3.0
 40
4.0
 40
4.0
 40
5.0
 40
5.0
 40
6.0
 40
6.0
 40
7.0
 40
7.0
 40
8.0
 40
8.0
 40
9.0
 40
9.0
 40
10.0
 40
10.0
 40
11.0
 40
11.0
 40
12.0
 40
12.0
 40
13.0
 40
13.0
 40
14.0
 40
14.0
 40
15.0
 40
15.0
 40
16.0
 40
16.0
 40
17.0
 40
17.0
 40
18.0
 40
18.0
 40
19.0
 40
19.0
 40
20.0
 40
20.0
 40
21.0
 40
21.0
 40
22.0
 40
22.0
 40
23.0
 40
23.0
 40
24.0
 40
24.0
 40
25.0
 40
25.0
 40
26.0
 40
26.0
 40
27.0
 40
27.0
 40
28.0
 40
28.0
 40
28.0
 10
829.9519998708246
 20
-1642.487967751606
 30
0.0
 10
825.5476375548122
 20
-1642.487967751606
 30
0.0
 10
821.1432752387993
 20
-1642.487967751606
 30
0.0
 10
821.1432752387993
 20
-1644.730958880967
 30
0.0
 10
821.1432752387993
 20
-1646.973950010328
 30
0.0
 10
821.1432752387993
 20
-1675.647644228966
 30
0.0
 10
802.9496463422931
 20
-1679.602633143709
 30
0.0
 10
793.85283189404
 20
-1681.580127601081
 30
0.0
 10
784.7560174457871
 20
-1683.557622058453
 30
0.0
 10
782.910287530897
 20
-1678.366697431482
 30
0.0
 10
781.0645576160068
 20
-1673.175772804513
 30
0.0
 10
809.9126410594283
 20
-1666.254539968553
 30
0.0
 10
809.9126410594283
 20
-1657.108617486203
 30
0.0
 10
809.9126410594283
 20
-1652.535656245029
 30
0.0
 10
809.9126410594283
 20
-1647.962695003854
 30
0.0
 10
809.9126410594283
 20
-1645.22533137773
 30
0.0
 10
809.9126410594283
 20
-1642.487967751606
 30
0.0
 10
807.3540086583058
 20
-1642.487967751606
 30
0.0
 10
804.7953762571836
 20
-1642.487967751606
 30
0.0
 10
801.8168189136353
 20
-1642.487967751606
 30
0.0
 10
798.8382615700868
 20
-1642.487967751606
 30
0.0
 10
798.8382615700868
 20
-1608.394477551541
 30
0.0
 10
798.8382615700868
 20
-1574.300987351477
 30
0.0
 10
827.1296876802768
 20
-1574.300987351477
 30
0.0
 10
855.4211137904667
 20
-1574.300987351477
 30
0.0
 10
855.4211137904667
 20
-1608.394477551541
 30
0.0
 10
855.4211137904667
 20
-1642.487967751606
 30
0.0
 10
848.3018739203314
 20
-1642.487967751606
 30
0.0
 10
841.1826340501958
 20
-1642.487967751606
 30
0.0
 10
841.1826340501958
 20
-1655.112808134907
 30
0.0
 10
841.1826340501958
 20
-1667.737648518207
 30
0.0
 10
841.1826340501958
 20
-1671.692646373587
 30
0.0
 10
843.0283639650861
 20
-1671.692646373587
 30
0.0
 10
843.9512289225312
 20
-1671.692646373587
 30
0.0
 10
844.8740938799765
 20
-1671.692646373587
 30
0.0
 10
847.2471738366881
 20
-1671.692646373587
 30
0.0
 10
849.6202537933999
 20
-1671.692646373587
 30
0.0
 10
852.2570135395371
 20
-1671.692646373587
 30
0.0
 10
852.5206837919334
 20
-1670.20951994266
 30
0.0
 10
852.6525189181313
 20
-1669.467956727197
 30
0.0
 10
852.7843540443296
 20
-1668.726393511733
 30
0.0
 10
853.5753838755764
 20
-1664.277032100227
 30
0.0
 10
854.3664137068233
 20
-1659.82767068872
 30
0.0
 10
859.639933199098
 20
-1661.063606400947
 30
0.0
 10
864.9134526913726
 20
-1662.299542113174
 30
0.0
 10
863.3313930288784
 20
-1681.049129786785
 30
0.0
 10
857.7942032842079
 20
-1681.049129786785
 30
0.0
 10
855.0256084118725
 20
-1681.049129786785
 30
0.0
 10
852.2570135395371
 20
-1681.049129786785
 30
0.0
 10
846.4561440054408
 20
-1681.049129786785
 30
0.0
 10
840.6552744713449
 20
-1681.049129786785
 30
0.0
 10
829.9519998708246
 20
-1681.049129786785
 30
0.0
 10
829.9519998708246
 20
-1676.618078798886
 30
0.0
 10
829.9519998708246
 20
-1674.402553304936
 30
0.0
 10
829.9519998708246
 20
-1672.187027810986
 30
0.0
 10
829.9519998708246
 20
-1657.337497781296
 30
0.0
 10
829.9519998708246
 20
-1642.487967751606
 30
0.0
  0
LWPOLYLINE
  5
DC
330
33
100
AcDbEntity
  8
一般
  6
Continuous
 62
     7
370
     9
100
AcDbPolyline
 90
        4
 70
   129
 43
0.0
 10
810.0688957494583
 20
-1633.131484338408
 10
844.1904796110954
 20
-1633.131484338408
 10
844.1904796110954
 20
-1621.724269243727
 10
810.0688957494583
 20
-1621.724269243727
  0
LWPOLYLINE
  5
DD
330
33
100
AcDbEntity
  8
一般
  6
Continuous
 62
     7
370
     9
100
AcDbPolyline
 90
        4
 70
   129
 43
0.0
 10
810.0688957494583
 20
-1612.367785830529
 10
844.1904796110954
 20
-1612.367785830529
 10
844.1904796110954
 20
-1602.938060722901
 10
810.0688957494583
 20
-1602.938060722901
  0
LWPOLYLINE
  5
DE
330
33
100
AcDbEntity
  8
一般
  6
Continuous
 62
     7
370
     9
100
AcDbPolyline
 90
        4
 70
   129
 43
0.0
 10
810.0688957494583
 20
-1593.581577309703
 10
844.1904796110954
 20
-1593.581577309703
 10
844.1904796110954
 20
-1583.657470764675
 10
810.0688957494583
 20
-1583.657470764675
  0
ENDBLK
  5
DF
330
33
100
AcDbEntity
  8
一般
100
AcDbBlockEnd
  0
ENDSEC
  0
SECTION
  2
ENTITIES
  0
LINE
  5
E0
330
A
100
AcDbEntity
  8
一般
  6
Continuous
 62
     7
370
     9
100
AcDbLine
 10
60.0
 20
-1430.0
 30
0.0
 11
-2560.0
 21
-1430.0
 31
0.0
  0
LINE
  5
E1
330
A
100
AcDbEntity
  8
一般
  6
STYLE_09
 62
     7
370
     5
100
AcDbLine
 10
-2160.0
 20
-1800.0
 30
0.0
 11
-2160.0
 21
1800.0
 31
0.0
  0
LINE
  5
E2
330
A
100
AcDbEntity
  8
一般
  6
STYLE_09
 62
     7
370
     5
100
AcDbLine
 10
-1250.0
 20
-1800.0
 30
0.0
 11
-1250.0
 21
1800.0
 31
0.0
  0
LINE
  5
E3
330
A
100
AcDbEntity
  8
一般
  6
STYLE_09
 62
     7
370
     5
100
AcDbLine
 10
-340.0
 20
-1800.0
 30
0.0
 11
-340.0
 21
1800.0
 31
0.0
  0
LINE
  5
E4
330
A
100
AcDbEntity
  8
一般
  6
Continuous
 62
     7
370
     5
100
AcDbLine
 10
-2560.0
 20
1360.0
 30
0.0
 11
-2560.0
 21
1570.0
 31
0.0
  0
LINE
  5
E5
330
A
100
AcDbEntity
  8
一般
  6
Continuous
 62
     7
370
     5
100
AcDbLine
 10
60.0
 20
1360.0
 30
0.0
 11
-2560.0
 21
1360.0
 31
0.0
  0
LINE
  5
E6
330
A
100
AcDbEntity
  8
一般
  6
Continuous
 62
     7
370
     5
100
AcDbLine
 10
60.0
 20
1570.0
 30
0.0
 11
60.0
 21
1360.0
 31
0.0
  0
LINE
  5
E7
330
A
100
AcDbEntity
  8
一般
  6
Continuous
 62
     7
370
     5
100
AcDbLine
 10
-2560.0
 20
1570.0
 30
0.0
 11
60.0
 21
1570.0
 31
0.0
  0
LINE
  5
E8
330
A
100
AcDbEntity
  8
寸法
  6
Continuous
 62
     7
370
     5
100
AcDbLine
 10
-2560.0
 20
-1461.8
 30
0.0
 11
-2560.0
 21
-1833.599999999999
 31
0.0
  0
LINE
  5
E9
330
A
100
AcDbEntity
  8
寸法
  6
Continuous
 62
     7
370
     5
100
AcDbLine
 10
-2160.0
 20
-1461.8
 30
0.0
 11
-2160.0
 21
-1833.599999999999
 31
0.0
  0
LINE
  5
EA
330
A
100
AcDbEntity
  8
寸法
  6
Continuous
 62
     7
370
     5
100
AcDbLine
 10
-2591.8
 20
-1770.0
 30
0.0
 11
-2560.0
 21
-1770.0
 31
0.0
  0
LINE
  5
EB
330
A
100
AcDbEntity
  8
寸法
  6
Continuous
 62
     7
370
     5
100
AcDbLine
 10
-2160.0
 20
-1770.0
 30
0.0
 11
-2128.2
 21
-1770.0
 31
0.0
  0
CIRCLE
  5
ED
330
A
100
AcDbEntity
  8
寸法
 62
     7
370
     5
100
AcDbCircle
 10
-2560.0
 20
-1770.0
 30
0.0
 40
19.998779296875
  0
CIRCLE
  5
EE
330
A
100
AcDbEntity
  8
寸法
 62
     7
370
     5
100
AcDbCircle
 10
-2160.0
 20
-1770.0
 30
0.0
 40
19.998779296875
  0
LINE
  5
EC
330
A
100
AcDbEntity
  8
寸法
  6
Continuous
 62
     7
370
     5
100
AcDbLine
 10
-2560.0
 20
-1770.0
 30
0.0
 11
-2160.0
 21
-1770.0
 31
0.0
  0
INSERT
  5
EF
330
A
100
AcDbEntity
  8
寸法
 62
     7
100
AcDbBlockReference
  2
*U0
 10
0.0
 20
0.0
 30
0.0
  0
LINE
  5
F0
330
A
100
AcDbEntity
  8
寸法
  6
Continuous
 62
     7
370
     5
100
AcDbLine
 10
-2160.0
 20
-1461.8
 30
0.0
 11
-2160.0
 21
-1833.599999999999
 31
0.0
  0
LINE
  5
F1
330
A
100
AcDbEntity
  8
寸法
  6
Continuous
 62
     7
370
     5
100
AcDbLine
 10
-1250.0
 20
-1461.8
 30
0.0
 11
-1250.0
 21
-1833.599999999999
 31
0.0
  0
LINE
  5
F2
330
A
100
AcDbEntity
  8
寸法
  6
Continuous
 62
     7
370
     5
100
AcDbLine
 10
-2191.8
 20
-1770.0
 30
0.0
 11
-2160.0
 21
-1770.0
 31
0.0
  0
LINE
  5
F3
330
A
100
AcDbEntity
  8
寸法
  6
Continuous
 62
     7
370
     5
100
AcDbLine
 10
-1250.0
 20
-1770.0
 30
0.0
 11
-1218.2
 21
-1770.0
 31
0.0
  0
CIRCLE
  5
F5
330
A
100
AcDbEntity
  8
寸法
 62
     7
370
     5
100
AcDbCircle
 10
-2160.0
 20
-1770.0
 30
0.0
 40
19.998779296875
  0
CIRCLE
  5
F6
330
A
100
AcDbEntity
  8
寸法
 62
     7
370
     5
100
AcDbCircle
 10
-1250.0
 20
-1770.0
 30
0.0
 40
19.998779296875
  0
LINE
  5
F4
330
A
100
AcDbEntity
  8
寸法
  6
Continuous
 62
     7
370
     5
100
AcDbLine
 10
-2160.0
 20
-1770.0
 30
0.0
 11
-1250.0
 21
-1770.0
 31
0.0
  0
INSERT
  5
F7
330
A
100
AcDbEntity
  8
寸法
 62
     7
100
AcDbBlockReference
  2
*U1
 10
0.0
 20
0.0
 30
0.0
  0
LINE
  5
F8
330
A
100
AcDbEntity
  8
寸法
  6
Continuous
 62
     7
370
     5
100
AcDbLine
 10
-1250.0
 20
-1461.8
 30
0.0
 11
-1250.0
 21
-1833.599999999999
 31
0.0
  0
LINE
  5
F9
330
A
100
AcDbEntity
  8
寸法
  6
Continuous
 62
     7
370
     5
100
AcDbLine
 10
-340.0
 20
-1461.8
 30
0.0
 11
-340.0
 21
-1833.599999999999
 31
0.0
  0
LINE
  5
FA
330
A
100
AcDbEntity
  8
寸法
  6
Continuous
 62
     7
370
     5
100
AcDbLine
 10
-1281.8
 20
-1770.0
 30
0.0
 11
-1250.0
 21
-1770.0
 31
0.0
  0
LINE
  5
FB
330
A
100
AcDbEntity
  8
寸法
  6
Continuous
 62
     7
370
     5
100
AcDbLine
 10
-340.0
 20
-1770.0
 30
0.0
 11
-308.1999999999999
 21
-1770.0
 31
0.0
  0
CIRCLE
  5
FD
330
A
100
AcDbEntity
  8
寸法
 62
     7
370
     5
100
AcDbCircle
 10
-1250.0
 20
-1770.0
 30
0.0
 40
19.998779296875
  0
CIRCLE
  5
FE
330
A
100
AcDbEntity
  8
寸法
 62
     7
370
     5
100
AcDbCircle
 10
-340.0
 20
-1770.0
 30
0.0
 40
19.998779296875
  0
LINE
  5
FC
330
A
100
AcDbEntity
  8
寸法
  6
Continuous
 62
     7
370
     5
100
AcDbLine
 10
-1250.0
 20
-1770.0
 30
0.0
 11
-340.0
 21
-1770.0
 31
0.0
  0
INSERT
  5
FF
330
A
100
AcDbEntity
  8
寸法
 62
     7
100
AcDbBlockReference
  2
*U2
 10
0.0
 20
0.0
 30
0.0
  0
LINE
  5
100
330
A
100
AcDbEntity
  8
寸法
  6
Continuous
 62
     7
370
     5
100
AcDbLine
 10
-340.0
 20
-1461.8
 30
0.0
 11
-340.0
 21
-1833.599999999999
 31
0.0
  0
LINE
  5
101
330
A
100
AcDbEntity
  8
寸法
  6
Continuous
 62
     7
370
     5
100
AcDbLine
 10
60.0
 20
-1456.774462372004
 30
0.0
 11
60.0
 21
-1833.599999999999
 31
0.0
  0
LINE
  5
102
330
A
100
AcDbEntity
  8
寸法
  6
Continuous
 62
     7
370
     5
100
AcDbLine
 10
-371.7999999999999
 20
-1770.0
 30
0.0
 11
-340.0
 21
-1770.0
 31
0.0
  0
LINE
  5
103
330
A
100
AcDbEntity
  8
寸法
  6
Continuous
 62
     7
370
     5
100
AcDbLine
 10
60.0
 20
-1770.0
 30
0.0
 11
91.79999999999999
 21
-1770.0
 31
0.0
  0
CIRCLE
  5
105
330
A
100
AcDbEntity
  8
寸法
 62
     7
370
     5
100
AcDbCircle
 10
-340.0
 20
-1770.0
 30
0.0
 40
19.998779296875
  0
CIRCLE
  5
106
330
A
100
AcDbEntity
  8
寸法
 62
     7
370
     5
100
AcDbCircle
 10
60.0
 20
-1770.0
 30
0.0
 40
19.998779296875
  0
LINE
  5
104
330
A
100
AcDbEntity
  8
寸法
  6
Continuous
 62
     7
370
     5
100
AcDbLine
 10
-340.0
 20
-1770.0
 30
0.0
 11
60.0
 21
-1770.0
 31
0.0
  0
INSERT
  5
107
330
A
100
AcDbEntity
  8
寸法
 62
     7
100
AcDbBlockReference
  2
*U3
 10
0.0
 20
0.0
 30
0.0
  0
LINE
  5
108
330
A
100
AcDbEntity
  8
寸法
  6
Continuous
 62
     7
370
     5
100
AcDbLine
 10
-2560.0
 20
1601.8
 30
0.0
 11
-2560.0
 21
1863.599999999999
 31
0.0
  0
LINE
  5
109
330
A
100
AcDbEntity
  8
寸法
  6
Continuous
 62
     7
370
     5
100
AcDbLine
 10
-2160.0
 20
1601.8
 30
0.0
 11
-2160.0
 21
1863.599999999999
 31
0.0
  0
LINE
  5
10A
330
A
100
AcDbEntity
  8
寸法
  6
Continuous
 62
     7
370
     5
100
AcDbLine
 10
-2591.8
 20
1800.0
 30
0.0
 11
-2560.0
 21
1800.0
 31
0.0
  0
LINE
  5
10B
330
A
100
AcDbEntity
  8
寸法
  6
Continuous
 62
     7
370
     5
100
AcDbLine
 10
-2160.0
 20
1800.0
 30
0.0
 11
-2128.2
 21
1800.0
 31
0.0
  0
CIRCLE
  5
10D
330
A
100
AcDbEntity
  8
寸法
 62
     7
370
     5
100
AcDbCircle
 10
-2560.0
 20
1800.0
 30
0.0
 40
19.998779296875
  0
CIRCLE
  5
10E
330
A
100
AcDbEntity
  8
寸法
 62
     7
370
     5
100
AcDbCircle
 10
-2160.0
 20
1800.0
 30
0.0
 40
19.998779296875
  0
LINE
  5
10C
330
A
100
AcDbEntity
  8
寸法
  6
Continuous
 62
     7
370
     5
100
AcDbLine
 10
-2560.0
 20
1800.0
 30
0.0
 11
-2160.0
 21
1800.0
 31
0.0
  0
INSERT
  5
10F
330
A
100
AcDbEntity
  8
寸法
 62
     7
100
AcDbBlockReference
  2
*U4
 10
0.0
 20
0.0
 30
0.0
  0
LINE
  5
110
330
A
100
AcDbEntity
  8
寸法
  6
Continuous
 62
     7
370
     5
100
AcDbLine
 10
-2160.0
 20
1601.8
 30
0.0
 11
-2160.0
 21
1863.599999999999
 31
0.0
  0
LINE
  5
111
330
A
100
AcDbEntity
  8
寸法
  6
Continuous
 62
     7
370
     5
100
AcDbLine
 10
-1250.0
 20
1601.8
 30
0.0
 11
-1250.0
 21
1863.599999999999
 31
0.0
  0
LINE
  5
112
330
A
100
AcDbEntity
  8
寸法
  6
Continuous
 62
     7
370
     5
100
AcDbLine
 10
-2191.8
 20
1800.0
 30
0.0
 11
-2160.0
 21
1800.0
 31
0.0
  0
LINE
  5
113
330
A
100
AcDbEntity
  8
寸法
  6
Continuous
 62
     7
370
     5
100
AcDbLine
 10
-1250.0
 20
1800.0
 30
0.0
 11
-1218.2
 21
1800.0
 31
0.0
  0
CIRCLE
  5
115
330
A
100
AcDbEntity
  8
寸法
 62
     7
370
     5
100
AcDbCircle
 10
-2160.0
 20
1800.0
 30
0.0
 40
19.998779296875
  0
CIRCLE
  5
116
330
A
100
AcDbEntity
  8
寸法
 62
     7
370
     5
100
AcDbCircle
 10
-1250.0
 20
1800.0
 30
0.0
 40
19.998779296875
  0
LINE
  5
114
330
A
100
AcDbEntity
  8
寸法
  6
Continuous
 62
     7
370
     5
100
AcDbLine
 10
-2160.0
 20
1800.0
 30
0.0
 11
-1250.0
 21
1800.0
 31
0.0
  0
INSERT
  5
117
330
A
100
AcDbEntity
  8
寸法
 62
     7
100
AcDbBlockReference
  2
*U5
 10
0.0
 20
0.0
 30
0.0
  0
LINE
  5
118
330
A
100
AcDbEntity
  8
寸法
  6
Continuous
 62
     7
370
     5
100
AcDbLine
 10
-1250.0
 20
1601.8
 30
0.0
 11
-1250.0
 21
1863.599999999999
 31
0.0
  0
LINE
  5
119
330
A
100
AcDbEntity
  8
寸法
  6
Continuous
 62
     7
370
     5
100
AcDbLine
 10
-340.0
 20
1601.8
 30
0.0
 11
-340.0
 21
1863.599999999999
 31
0.0
  0
LINE
  5
11A
330
A
100
AcDbEntity
  8
寸法
  6
Continuous
 62
     7
370
     5
100
AcDbLine
 10
-1281.8
 20
1800.0
 30
0.0
 11
-1250.0
 21
1800.0
 31
0.0
  0
LINE
  5
11B
330
A
100
AcDbEntity
  8
寸法
  6
Continuous
 62
     7
370
     5
100
AcDbLine
 10
-340.0
 20
1800.0
 30
0.0
 11
-308.1999999999999
 21
1800.0
 31
0.0
  0
CIRCLE
  5
11D
330
A
100
AcDbEntity
  8
寸法
 62
     7
370
     5
100
AcDbCircle
 10
-1250.0
 20
1800.0
 30
0.0
 40
19.998779296875
  0
CIRCLE
  5
11E
330
A
100
AcDbEntity
  8
寸法
 62
     7
370
     5
100
AcDbCircle
 10
-340.0
 20
1800.0
 30
0.0
 40
19.998779296875
  0
LINE
  5
11C
330
A
100
AcDbEntity
  8
寸法
  6
Continuous
 62
     7
370
     5
100
AcDbLine
 10
-1250.0
 20
1800.0
 30
0.0
 11
-340.0
 21
1800.0
 31
0.0
  0
INSERT
  5
11F
330
A
100
AcDbEntity
  8
寸法
 62
     7
100
AcDbBlockReference
  2
*U6
 10
0.0
 20
0.0
 30
0.0
  0
LINE
  5
120
330
A
100
AcDbEntity
  8
寸法
  6
Continuous
 62
     7
370
     5
100
AcDbLine
 10
-340.0
 20
1601.8
 30
0.0
 11
-340.0
 21
1863.599999999999
 31
0.0
  0
LINE
  5
121
330
A
100
AcDbEntity
  8
寸法
  6
Continuous
 62
     7
370
     5
100
AcDbLine
 10
60.0
 20
1601.8
 30
0.0
 11
60.0
 21
1863.599999999999
 31
0.0
  0
LINE
  5
122
330
A
100
AcDbEntity
  8
寸法
  6
Continuous
 62
     7
370
     5
100
AcDbLine
 10
-371.7999999999999
 20
1800.0
 30
0.0
 11
-340.0
 21
1800.0
 31
0.0
  0
LINE
  5
123
330
A
100
AcDbEntity
  8
寸法
  6
Continuous
 62
     7
370
     5
100
AcDbLine
 10
60.0
 20
1800.0
 30
0.0
 11
91.79999999999999
 21
1800.0
 31
0.0
  0
CIRCLE
  5
125
330
A
100
AcDbEntity
  8
寸法
 62
     7
370
     5
100
AcDbCircle
 10
-340.0
 20
1800.0
 30
0.0
 40
19.998779296875
  0
CIRCLE
  5
126
330
A
100
AcDbEntity
  8
寸法
 62
     7
370
     5
100
AcDbCircle
 10
60.0
 20
1800.0
 30
0.0
 40
19.998779296875
  0
LINE
  5
124
330
A
100
AcDbEntity
  8
寸法
  6
Continuous
 62
     7
370
     5
100
AcDbLine
 10
-340.0
 20
1800.0
 30
0.0
 11
60.0
 21
1800.0
 31
0.0
  0
INSERT
  5
127
330
A
100
AcDbEntity
  8
寸法
 62
     7
100
AcDbBlockReference
  2
*U7
 10
0.0
 20
0.0
 30
0.0
  0
LINE
  5
128
330
A
100
AcDbEntity
  8
寸法
  6
Continuous
 62
     7
370
     5
100
AcDbLine
 10
-2591.8
 20
-1430.0
 30
0.0
 11
-2733.6
 21
-1430.0
 31
0.0
  0
LINE
  5
129
330
A
100
AcDbEntity
  8
寸法
  6
Continuous
 62
     7
370
     5
100
AcDbLine
 10
-2591.8
 20
1570.0
 30
0.0
 11
-2733.6
 21
1570.0
 31
0.0
  0
LINE
  5
12A
330
A
100
AcDbEntity
  8
寸法
  6
Continuous
 62
     7
370
     5
100
AcDbLine
 10
-2670.0
 20
-1461.8
 30
0.0
 11
-2670.0
 21
-1430.0
 31
0.0
  0
LINE
  5
12B
330
A
100
AcDbEntity
  8
寸法
  6
Continuous
 62
     7
370
     5
100
AcDbLine
 10
-2670.0
 20
1570.0
 30
0.0
 11
-2670.0
 21
1601.8
 31
0.0
  0
CIRCLE
  5
12D
330
A
100
AcDbEntity
  8
寸法
 62
     7
370
     5
100
AcDbCircle
 10
-2670.0
 20
-1430.0
 30
0.0
 40
19.998779296875
  0
CIRCLE
  5
12E
330
A
100
AcDbEntity
  8
寸法
 62
     7
370
     5
100
AcDbCircle
 10
-2670.0
 20
1570.0
 30
0.0
 40
19.998779296875
  0
LINE
  5
12C
330
A
100
AcDbEntity
  8
寸法
  6
Continuous
 62
     7
370
     5
100
AcDbLine
 10
-2670.0
 20
-1430.0
 30
0.0
 11
-2670.0
 21
1570.0
 31
0.0
  0
INSERT
  5
12F
330
A
100
AcDbEntity
  8
寸法
 62
     7
100
AcDbBlockReference
  2
*U8
 10
0.0
 20
0.0
 30
0.0
  0
LINE
  5
130
330
A
100
AcDbEntity
  8
一般
  6
STYLE_09
 62
     7
370
     5
100
AcDbLine
 10
-2310.0
 20
-1610.0
 30
0.0
 11
-2310.0
 21
-1292.0
 31
0.0
  0
LINE
  5
131
330
A
100
AcDbEntity
  8
一般
  6
STYLE_09
 62
     7
370
     5
100
AcDbLine
 10
-190.0
 20
-1610.0
 30
0.0
 11
-190.0
 21
-1268.0
 31
0.0
  0
LINE
  5
132
330
A
100
AcDbEntity
  8
寸法
  6
Continuous
 62
     7
370
     5
100
AcDbLine
 10
-2310.0
 20
-1463.799999999999
 30
0.0
 11
-2310.0
 21
-1610.933333333333
 31
0.0
  0
LINE
  5
133
330
A
100
AcDbEntity
  8
寸法
  6
Continuous
 62
     7
370
     5
100
AcDbLine
 10
-2160.0
 20
-1465.799999999999
 30
0.0
 11
-2160.0
 21
-1610.933333333333
 31
0.0
  0
LINE
  5
134
330
A
100
AcDbEntity
  8
寸法
  6
Continuous
 62
     7
370
     5
100
AcDbLine
 10
-2341.8
 20
-1547.333333333333
 30
0.0
 11
-2310.0
 21
-1547.333333333333
 31
0.0
  0
LINE
  5
135
330
A
100
AcDbEntity
  8
寸法
  6
Continuous
 62
     7
370
     5
100
AcDbLine
 10
-2160.0
 20
-1547.333333333333
 30
0.0
 11
-2128.2
 21
-1547.333333333333
 31
0.0
  0
LINE
  5
136
330
A
100
AcDbEntity
  8
寸法
  6
Continuous
 62
     7
370
     5
100
AcDbLine
 10
-2310.0
 20
-1547.333333333333
 30
0.0
 11
-2467.0
 21
-1547.333333333333
 31
0.0
  0
CIRCLE
  5
138
330
A
100
AcDbEntity
  8
寸法
 62
     7
370
     5
100
AcDbCircle
 10
-2310.0
 20
-1547.333333333333
 30
0.0
 40
19.998779296875
  0
CIRCLE
  5
139
330
A
100
AcDbEntity
  8
寸法
 62
     7
370
     5
100
AcDbCircle
 10
-2160.0
 20
-1547.333333333333
 30
0.0
 40
19.998779296875
  0
LINE
  5
137
330
A
100
AcDbEntity
  8
寸法
  6
Continuous
 62
     7
370
     5
100
AcDbLine
 10
-2310.0
 20
-1547.333333333333
 30
0.0
 11
-2160.0
 21
-1547.333333333333
 31
0.0
  0
INSERT
  5
13A
330
A
100
AcDbEntity
  8
寸法
 62
     7
100
AcDbBlockReference
  2
*U9
 10
0.0
 20
0.0
 30
0.0
  0
LINE
  5
13B
330
A
100
AcDbEntity
  8
寸法
  6
Continuous
 62
     7
370
     5
100
AcDbLine
 10
-340.0
 20
-1493.599999999999
 30
0.0
 11
-340.0
 21
-1673.6
 31
0.0
  0
LINE
  5
13C
330
A
100
AcDbEntity
  8
寸法
  6
Continuous
 62
     7
370
     5
100
AcDbLine
 10
-190.0
 20
-1519.499999999999
 30
0.0
 11
-190.0
 21
-1673.6
 31
0.0
  0
LINE
  5
13D
330
A
100
AcDbEntity
  8
寸法
  6
Continuous
 62
     7
370
     5
100
AcDbLine
 10
-371.7999999999999
 20
-1610.0
 30
0.0
 11
-340.0
 21
-1610.0
 31
0.0
  0
LINE
  5
13E
330
A
100
AcDbEntity
  8
寸法
  6
Continuous
 62
     7
370
     5
100
AcDbLine
 10
-190.0
 20
-1610.0
 30
0.0
 11
-158.1999999999999
 21
-1610.0
 31
0.0
  0
LINE
  5
13F
330
A
100
AcDbEntity
  8
寸法
  6
Continuous
 62
     7
370
     5
100
AcDbLine
 10
-190.0
 20
-1610.0
 30
0.0
 11
-3.0
 21
-1610.0
 31
0.0
  0
CIRCLE
  5
141
330
A
100
AcDbEntity
  8
寸法
 62
     7
370
     5
100
AcDbCircle
 10
-340.0
 20
-1610.0
 30
0.0
 40
19.998779296875
  0
CIRCLE
  5
142
330
A
100
AcDbEntity
  8
寸法
 62
     7
370
     5
100
AcDbCircle
 10
-190.0
 20
-1610.0
 30
0.0
 40
19.998779296875
  0
LINE
  5
140
330
A
100
AcDbEntity
  8
寸法
  6
Continuous
 62
     7
370
     5
100
AcDbLine
 10
-340.0
 20
-1610.0
 30
0.0
 11
-190.0
 21
-1610.0
 31
0.0
  0
INSERT
  5
143
330
A
100
AcDbEntity
  8
寸法
 62
     7
100
AcDbBlockReference
  2
*U10
 10
0.0
 20
0.0
 30
0.0
  0
LINE
  5
144
330
A
100
AcDbEntity
  8
一般
  6
STYLE_01
 62
     7
370
     5
100
AcDbLine
 10
-199.0
 20
-1430.0
 30
0.0
 11
-199.0
 21
-1310.0
 31
0.0
  0
LINE
  5
145
330
A
100
AcDbEntity
  8
一般
  6
STYLE_01
 62
     7
370
     5
100
AcDbLine
 10
-181.0
 20
-1430.0
 30
0.0
 11
-181.0
 21
-1310.0
 31
0.0
  0
LINE
  5
146
330
A
100
AcDbEntity
  8
一般
  6
STYLE_01
 62
     7
370
     5
100
AcDbLine
 10
-2319.0
 20
-1432.0
 30
0.0
 11
-2319.0
 21
-1308.0
 31
0.0
  0
LINE
  5
147
330
A
100
AcDbEntity
  8
一般
  6
STYLE_01
 62
     7
370
     5
100
AcDbLine
 10
-2301.0
 20
-1432.0
 30
0.0
 11
-2301.0
 21
-1308.0
 31
0.0
  0
LINE
  5
148
330
A
100
AcDbEntity
  8
一般
  6
STYLE_09
 62
     7
370
     5
100
AcDbLine
 10
-1100.0
 20
-1610.0
 30
0.0
 11
-1100.0
 21
-1070.0
 31
0.0
  0
LINE
  5
149
330
A
100
AcDbEntity
  8
寸法
  6
Continuous
 62
     7
370
     5
100
AcDbLine
 10
-1250.0
 20
-1111.8
 30
0.0
 11
-1250.0
 21
-1740.933333333333
 31
0.0
  0
LINE
  5
14A
330
A
100
AcDbEntity
  8
寸法
  6
Continuous
 62
     7
370
     5
100
AcDbLine
 10
-1100.0
 20
-1111.8
 30
0.0
 11
-1100.0
 21
-1740.933333333333
 31
0.0
  0
LINE
  5
14B
330
A
100
AcDbEntity
  8
寸法
  6
Continuous
 62
     7
370
     5
100
AcDbLine
 10
-1281.8
 20
-1677.333333333333
 30
0.0
 11
-1250.0
 21
-1677.333333333333
 31
0.0
  0
LINE
  5
14C
330
A
100
AcDbEntity
  8
寸法
  6
Continuous
 62
     7
370
     5
100
AcDbLine
 10
-1100.0
 20
-1677.333333333333
 30
0.0
 11
-1068.2
 21
-1677.333333333333
 31
0.0
  0
LINE
  5
14D
330
A
100
AcDbEntity
  8
寸法
  6
Continuous
 62
     7
370
     5
100
AcDbLine
 10
-1100.0
 20
-1677.333333333333
 30
0.0
 11
-913.0
 21
-1677.333333333333
 31
0.0
  0
CIRCLE
  5
14F
330
A
100
AcDbEntity
  8
寸法
 62
     7
370
     5
100
AcDbCircle
 10
-1250.0
 20
-1677.333333333333
 30
0.0
 40
19.998779296875
  0
CIRCLE
  5
150
330
A
100
AcDbEntity
  8
寸法
 62
     7
370
     5
100
AcDbCircle
 10
-1100.0
 20
-1677.333333333333
 30
0.0
 40
19.998779296875
  0
LINE
  5
14E
330
A
100
AcDbEntity
  8
寸法
  6
Continuous
 62
     7
370
     5
100
AcDbLine
 10
-1250.0
 20
-1677.333333333333
 30
0.0
 11
-1100.0
 21
-1677.333333333333
 31
0.0
  0
INSERT
  5
151
330
A
100
AcDbEntity
  8
寸法
 62
     7
100
AcDbBlockReference
  2
*U11
 10
0.0
 20
0.0
 30
0.0
  0
LINE
  5
152
330
A
100
AcDbEntity
  8
一般
  6
STYLE_01
 62
     7
370
     5
100
AcDbLine
 10
-1109.0
 20
-1430.0
 30
0.0
 11
-1109.0
 21
-1310.0
 31
0.0
  0
LINE
  5
153
330
A
100
AcDbEntity
  8
一般
  6
STYLE_01
 62
     7
370
     5
100
AcDbLine
 10
-1091.0
 20
-1430.0
 30
0.0
 11
-1091.0
 21
-1310.0
 31
0.0
  0
LINE
  5
154
330
A
100
AcDbEntity
  8
寸法
  6
Continuous
 62
     7
370
     5
100
AcDbLine
 10
-2560.0
 20
-1801.8
 30
0.0
 11
-2560.0
 21
-2018.6
 31
0.0
  0
LINE
  5
155
330
A
100
AcDbEntity
  8
寸法
  6
Continuous
 62
     7
370
     5
100
AcDbLine
 10
60.0
 20
-1801.8
 30
0.0
 11
60.0
 21
-2018.6
 31
0.0
  0
LINE
  5
156
330
A
100
AcDbEntity
  8
寸法
  6
Continuous
 62
     7
370
     5
100
AcDbLine
 10
-2591.8
 20
-1955.0
 30
0.0
 11
-2560.0
 21
-1955.0
 31
0.0
  0
LINE
  5
157
330
A
100
AcDbEntity
  8
寸法
  6
Continuous
 62
     7
370
     5
100
AcDbLine
 10
60.0
 20
-1955.0
 30
0.0
 11
91.79999999999999
 21
-1955.0
 31
0.0
  0
CIRCLE
  5
159
330
A
100
AcDbEntity
  8
寸法
 62
     7
370
     5
100
AcDbCircle
 10
-2560.0
 20
-1955.0
 30
0.0
 40
19.998779296875
  0
CIRCLE
  5
15A
330
A
100
AcDbEntity
  8
寸法
 62
     7
370
     5
100
AcDbCircle
 10
60.0
 20
-1955.0
 30
0.0
 40
19.998779296875
  0
LINE
  5
158
330
A
100
AcDbEntity
  8
寸法
  6
Continuous
 62
     7
370
     5
100
AcDbLine
 10
-2560.0
 20
-1955.0
 30
0.0
 11
60.0
 21
-1955.0
 31
0.0
  0
INSERT
  5
15B
330
A
100
AcDbEntity
  8
寸法
 62
     7
100
AcDbBlockReference
  2
*U12
 10
0.0
 20
0.0
 30
0.0
  0
LINE
  5
15C
330
A
100
AcDbEntity
  8
一般
  6
STYLE_05
 62
     7
370
     5
100
AcDbLine
 10
-2270.0
 20
1360.0
 30
0.0
 11
-1140.0
 21
1360.0
 31
0.0
  0
LINE
  5
15D
330
A
100
AcDbEntity
  8
一般
  6
STYLE_09
 62
     7
370
     5
100
AcDbLine
 10
700.0
 20
1800.0
 30
0.0
 11
700.0
 21
-1550.0
 31
0.0
  0
LINE
  5
15E
330
A
100
AcDbEntity
  8
一般
  6
Continuous
 62
     7
370
     5
100
AcDbLine
 10
-1800.0
 20
1610.0
 30
0.0
 11
-1800.0
 21
1730.0
 31
0.0
  0
LINE
  5
15F
330
A
100
AcDbEntity
  8
一般
  6
Continuous
 62
     7
370
     5
100
AcDbLine
 10
-1590.0
 20
1730.0
 30
0.0
 11
-1800.0
 21
1730.0
 31
0.0
  0
LINE
  5
160
330
A
100
AcDbEntity
  8
一般
  6
Continuous
 62
     7
370
     5
100
AcDbLine
 10
-1590.0
 20
1730.0
 30
0.0
 11
-1668.75
 21
1684.533666301317
 31
0.0
  0
LINE
  5
161
330
A
100
AcDbEntity
  8
一般
  6
Continuous
 62
     7
370
     5
100
AcDbLine
 10
-1800.0
 20
-1500.0
 30
0.0
 11
-1800.0
 21
-1620.0
 31
0.0
  0
LINE
  5
162
330
A
100
AcDbEntity
  8
一般
  6
Continuous
 62
     7
370
     5
100
AcDbLine
 10
-1590.0
 20
-1620.0
 30
0.0
 11
-1800.0
 21
-1620.0
 31
0.0
  0
LINE
  5
163
330
A
100
AcDbEntity
  8
一般
  6
Continuous
 62
     7
370
     5
100
AcDbLine
 10
-1590.0
 20
-1620.0
 30
0.0
 11
-1668.75
 21
-1574.533666301317
 31
0.0
  0
MTEXT
  5
164
330
A
100
AcDbEntity
  8
一般
 62
     7
100
AcDbMText
 10
-1561.749999999999
 20
1783.5
 30
0.0
 40
101.6
 41
0.0
 71
     1
 72
     1
  1
B
  7
ＭＳ ゴシック
 73
     1
 44
1.0
  0
MTEXT
  5
165
330
A
100
AcDbEntity
  8
一般
 62
     7
100
AcDbMText
 10
-1530.0
 20
-1585.476385972915
 30
0.0
 40
101.6
 41
667.3661022998345
 71
     1
 72
     1
  1
B
  7
ＭＳ ゴシック
 73
     1
 44
1.0
  0
LINE
  5
166
330
A
100
AcDbEntity
  8
一般
  6
Continuous
 62
     7
370
     5
100
AcDbLine
 10
521.4999999999999
 20
-1683.279056191361
 30
0.0
 11
898.4999999999999
 21
-1683.279056191361
 31
0.0
  0
LINE
  5
167
330
A
100
AcDbEntity
  8
一般
  6
STYLE_09
 62
     7
370
     5
100
AcDbLine
 10
200.0
 20
1570.0
 30
0.0
 11
1060.0
 21
1570.0
 31
0.0
  0
LINE
  5
168
330
A
100
AcDbEntity
  8
一般
  6
STYLE_09
 62
     7
370
     5
100
AcDbLine
 10
200.0
 20
-1440.0
 30
0.0
 11
1020.0
 21
-1440.0
 31
0.0
  0
POLYLINE
  5
169
330
A
100
AcDbEntity
  8
一般
  6
Continuous
 62
     7
370
     9
100
AcDb2dPolyline
 66
     1
 10
0.0
 20
0.0
 30
0.0
 70
     1
 75
     5
  0
VERTEX
  5
16A
330
169
100
AcDbEntity
  8
一般
  6
Continuous
 62
     7
370
     9
100
AcDbVertex
100
AcDb2dVertex
 10
1410.0
 20
660.0
 30
0.0
  0
VERTEX
  5
16B
330
169
100
AcDbEntity
  8
一般
  6
Continuous
 62
     7
370
     9
100
AcDbVertex
100
AcDb2dVertex
 10
2600.0
 20
660.0
 30
0.0
  0
VERTEX
  5
16C
330
169
100
AcDbEntity
  8
一般
  6
Continuous
 62
     7
370
     9
100
AcDbVertex
100
AcDb2dVertex
 10
2600.0
 20
-600.0
 30
0.0
  0
VERTEX
  5
16D
330
169
100
AcDbEntity
  8
一般
  6
Continuous
 62
     7
370
     9
100
AcDbVertex
100
AcDb2dVertex
 10
1410.0
 20
-600.0
 30
0.0
  0
SEQEND
  5
16E
330
169
100
AcDbEntity
  8
一般
  6
Continuous
 62
     7
370
     9
  0
LINE
  5
16F
330
A
100
AcDbEntity
  8
一般
  6
Continuous
 62
     7
370
     9
100
AcDbLine
 10
1410.0
 20
450.0
 30
0.0
 11
2600.0
 21
450.0
 31
0.0
  0
LINE
  5
170
330
A
100
AcDbEntity
  8
一般
  6
Continuous
 62
     7
370
     9
100
AcDbLine
 10
1410.0
 20
50.0
 30
0.0
 11
2600.0
 21
50.0
 31
0.0
  0
LINE
  5
171
330
A
100
AcDbEntity
  8
一般
  6
Continuous
 62
     7
370
     9
100
AcDbLine
 10
1410.0
 20
60.0
 30
0.0
 11
2600.0
 21
60.0
 31
0.0
  0
LINE
  5
172
330
A
100
AcDbEntity
  8
一般
  6
Continuous
 62
     7
370
     9
100
AcDbLine
 10
1410.0
 20
-160.0
 30
0.0
 11
2600.0
 21
-160.0
 31
0.0
  0
INSERT
  5
173
330
A
100
AcDbEntity
  8
一般
 62
     7
100
AcDbBlockReference
  2
*U13
 10
0.0
 20
0.0
 30
0.0
  0
INSERT
  5
174
330
A
100
AcDbEntity
  8
一般
 62
     7
100
AcDbBlockReference
  2
*U14
 10
0.0
 20
0.0
 30
0.0
  0
INSERT
  5
175
330
A
100
AcDbEntity
  8
一般
 62
     7
100
AcDbBlockReference
  2
*U15
 10
0.0
 20
0.0
 30
0.0
  0
INSERT
  5
176
330
A
100
AcDbEntity
  8
一般
 62
     7
100
AcDbBlockReference
  2
*U16
 10
0.0
 20
0.0
 30
0.0
  0
LINE
  5
17D
330
A
100
AcDbEntity
  8
0
  6
Continuous
370
     0
100
AcDbLine
 10
-2973.649133639181
 20
-2164.114836574266
 30
0.0
 11
2966.350866360818
 21
-2164.114836574266
 31
0.0
  0
LINE
  5
180
330
A
100
AcDbEntity
  8
0
  6
Continuous
370
     0
100
AcDbLine
 10
-2973.649133639181
 20
2055.885163425733
 30
0.0
 11
2966.350866360818
 21
2055.885163425733
 31
0.0
  0
LINE
  5
181
330
A
100
AcDbEntity
  8
0
  6
Continuous
370
     0
100
AcDbLine
 10
-2973.649133639181
 20
2055.885163425733
 30
0.0
 11
-2973.649133639181
 21
-2164.114836574266
 31
0.0
  0
LINE
  5
182
330
A
100
AcDbEntity
  8
0
  6
Continuous
370
     0
100
AcDbLine
 10
2966.350866360819
 20
2055.885163425733
 30
0.0
 11
2966.350866360819
 21
-2164.114836574266
 31
0.0
  0
ENDSEC
  0
SECTION
  2
OBJECTS
  0
DICTIONARY
  5
19
330
0
100
AcDbDictionary
281
     1
  3
ACAD_GROUP
350
1A
  3
ACAD_LAYOUT
350
1E
  3
ACAD_MLINESTYLE
350
1B
  3
ACAD_PLOTSETTINGS
350
22
  3
ACAD_PLOTSTYLENAME
350
1F
  0
DICTIONARY
  5
1A
102
{ACAD_REACTORS
330
19
102
}
330
19
100
AcDbDictionary
281
     1
  0
DICTIONARY
  5
1E
102
{ACAD_REACTORS
330
19
102
}
330
19
100
AcDbDictionary
281
     1
  3
Layout1
350
21
  3
Model
350
20
  0
DICTIONARY
  5
1B
102
{ACAD_REACTORS
330
19
102
}
330
19
100
AcDbDictionary
281
     1
  3
Standard
350
1C
  0
DICTIONARY
  5
22
102
{ACAD_REACTORS
330
19
102
}
330
19
100
AcDbDictionary
281
     1
  0
ACDBDICTIONARYWDFLT
  5
1F
102
{ACAD_REACTORS
330
19
102
}
330
19
100
AcDbDictionary
281
     1
  3
Normal
350
1D
100
AcDbDictionaryWithDefault
340
1D
  0
LAYOUT
  5
21
102
{ACAD_REACTORS
330
1E
102
}
330
1E
100
AcDbPlotSettings
  1

  2

  4

  6

 40
0.0
 41
0.0
 42
0.0
 43
0.0
 44
0.0
 45
0.0
 46
0.0
 47
0.0
 48
0.0
 49
0.0
140
0.0
141
0.0
142
1.0
143
1.0
 70
     0
 72
     0
 73
     0
 74
     0
  7

 75
     0
147
1.0
148
0.0
149
0.0
100
AcDbLayout
  1
Layout1
 70
     0
 71
     1
 10
0.0
 20
0.0
 11
12.0
 21
9.0
 12
0.0
 22
0.0
 32
0.0
 14
1.000000000000000E+20
 24
1.000000000000000E+20
 34
1.000000000000000E+20
 15
-1.000000000000000E+20
 25
-1.000000000000000E+20
 35
-1.000000000000000E+20
146
0.0
 13
0.0
 23
0.0
 33
0.0
 16
1.0
 26
0.0
 36
0.0
 17
0.0
 27
1.0
 37
0.0
 76
     0
330
B
  0
LAYOUT
  5
20
102
{ACAD_REACTORS
330
1E
102
}
330
1E
100
AcDbPlotSettings
  1

  2

  4

  6

 40
0.0
 41
0.0
 42
0.0
 43
0.0
 44
0.0
 45
0.0
 46
0.0
 47
0.0
 48
0.0
 49
0.0
140
0.0
141
0.0
142
1.0
143
1.0
 70
  1024
 72
     0
 73
     0
 74
     0
  7

 75
     0
147
1.0
148
0.0
149
0.0
100
AcDbLayout
  1
Model
 70
     0
 71
     0
 10
0.0
 20
0.0
 11
0.0
 21
0.0
 12
0.0
 22
0.0
 32
0.0
 14
0.0
 24
0.0
 34
0.0
 15
0.0
 25
0.0
 35
0.0
146
0.0
 13
0.0
 23
0.0
 33
0.0
 16
0.0
 26
0.0
 36
0.0
 17
0.0
 27
0.0
 37
0.0
 76
     0
330
A
  0
MLINESTYLE
  5
1C
102
{ACAD_REACTORS
330
1B
102
}
330
1B
100
AcDbMlineStyle
  2
STANDARD
 70
     0
  3

 62
     0
 51
90.0
 52
90.0
 71
     2
 49
0.5
 62
   256
  6
BYLAYER
 49
-0.5
 62
   256
  6
BYLAYER
  0
ACDBPLACEHOLDER
  5
1D
102
{ACAD_REACTORS
330
1F
102
}
330
1F
  0
ENDSEC
  0
EOF
