  0
SECTION
  2
HEADER
  9
$ACADVER
  1
AC1015
  9
$ACADMAINTVER
 70
               6
  9
$DWGCODEPAGE
  3
ANSI_932
  9
$INSBASE
 10
0.0
 20
0.0
 30
0.0
  9
$EXTMIN
 10
-2801.0555555555557
 20
-2039.0555555555557
 30
0.0
  9
$EXTMAX
 10
2801.0555555555557
 20
2039.0555555555557
 30
0.0
  9
$LIMMIN
 10
0.0
 20
0.0
  9
$LIMMAX
 10
0.0
 20
0.0
  9
$ORTHOMODE
 70
               0
  9
$REGENMODE
 70
               1
  9
$FILLMODE
 70
               1
  9
$QTEXTMODE
 70
               0
  9
$MIRRTEXT
 70
               1
  9
$LTSCALE
 40
101.59999999999999
  9
$ATTMODE
 70
               1
  9
$TEXTSIZE
 40
0.2
  9
$TRACEWID
 40
1.0
  9
$TEXTSTYLE
  7
Standard
  9
$CLAYER
  8
0
  9
$CELTYPE
  6
Continuous
  9
$CECOLOR
 62
             256
  9
$CELTSCALE
 40
1.0
  9
$DISPSILH
 70
               0
  9
$DIMSCALE
 40
1.0
  9
$DIMASZ
 40
0.18
  9
$DIMEXO
 40
0.0625
  9
$DIMDLI
 40
0.38
  9
$DIMRND
 40
0.0
  9
$DIMDLE
 40
0.0
  9
$DIMEXE
 40
0.18
  9
$DIMTP
 40
0.0
  9
$DIMTM
 40
0.0
  9
$DIMTXT
 40
0.18
  9
$DIMCEN
 40
0.09
  9
$DIMTSZ
 40
0.0
  9
$DIMTOL
 70
               0
  9
$DIMLIM
 70
               0
  9
$DIMTIH
 70
               1
  9
$DIMTOH
 70
               1
  9
$DIMSE1
 70
               0
  9
$DIMSE2
 70
               0
  9
$DIMTAD
 70
               0
  9
$DIMZIN
 70
               0
  9
$DIMBLK
  1

  9
$DIMASO
 70
               1
  9
$DIMSHO
 70
               1
  9
$DIMPOST
  1

  9
$DIMAPOST
  1

  9
$DIMALT
 70
               0
  9
$DIMALTD
 70
               2
  9
$DIMALTF
 40
25.399999999999999
  9
$DIMLFAC
 40
1.0
  9
$DIMTOFL
 70
               0
  9
$DIMTVP
 40
0.0
  9
$DIMTIX
 70
               0
  9
$DIMSOXD
 70
               0
  9
$DIMSAH
 70
               0
  9
$DIMBLK1
  1

  9
$DIMBLK2
  1

  9
$DIMSTYLE
  2
Standard
  9
$DIMCLRD
 70
               0
  9
$DIMCLRE
 70
               0
  9
$DIMCLRT
 70
               0
  9
$DIMTFAC
 40
1.0
  9
$DIMGAP
 40
0.09
  9
$DIMJUST
 70
               0
  9
$DIMSD1
 70
               0
  9
$DIMSD2
 70
               0
  9
$DIMTOLJ
 70
               1
  9
$DIMTZIN
 70
               0
  9
$DIMALTZ
 70
               0
  9
$DIMALTTZ
 70
               0
  9
$DIMUPT
 70
               0
  9
$DIMDEC
 70
               4
  9
$DIMTDEC
 70
               4
  9
$DIMALTU
 70
               2
  9
$DIMALTTD
 70
               2
  9
$DIMTXSTY
  7
Standard
  9
$DIMAUNIT
 70
               0
  9
$DIMADEC
 70
               0
  9
$DIMALTRND
 40
0.0
  9
$DIMAZIN
 70
               0
  9
$DIMDSEP
 70
               0
  9
$DIMATFIT
 70
               3
  9
$DIMFRAC
 70
               0
  9
$DIMLDRBLK
  1

  9
$DIMLUNIT
 70
               2
  9
$DIMLWD
 70
               0
  9
$DIMLWE
 70
               0
  9
$DIMTMOVE
 70
               0
  9
$LUNITS
 70
               2
  9
$LUPREC
 70
               4
  9
$SKETCHINC
 40
0.1
  9
$FILLETRAD
 40
0.0
  9
$AUNITS
 70
               0
  9
$AUPREC
 70
               0
  9
$MENU
  1
acad
  9
$ELEVATION
 40
0.0
  9
$PELEVATION
 40
0.0
  9
$THICKNESS
 40
0.0
  9
$LIMCHECK
 70
               0
  9
$CHAMFERA
 40
0.0
  9
$CHAMFERB
 40
0.0
  9
$CHAMFERC
 40
0.0
  9
$CHAMFERD
 40
0.0
  9
$SKPOLY
 70
               0
  9
$TDCREATE
 40
2453283.581099537
  9
$TDUCREATE
 40
0.000000000
  9
$TDUPDATE
 40
2453283.581099537
  9
$TDUUPDATE
 40
0.000000000
  9
$TDINDWG
 40
0.0000000000
  9
$TDUSRTIMER
 40
0.0000000000
  9
$USRTIMER
 70
               1
  9
$ANGBASE
 50
0.0
  9
$ANGDIR
 70
               0
  9
$PDMODE
 70
               1
  9
$PDSIZE
 40
-2.0
  9
$PLINEWID
 40
0.0
  9
$SPLFRAME
 70
               0
  9
$SPLINETYPE
 70
               6
  9
$SPLINESEGS
 70
               8
  9
$HANDSEED
  5
1AA
  9
$SURFTAB1
 70
               6
  9
$SURFTAB2
 70
               6
  9
$SURFTYPE
 70
               6
  9
$SURFU
 70
               6
  9
$SURFV
 70
               6
  9
$UCSBASE
  2

  9
$UCSNAME
  2

  9
$UCSORG
 10
0.0
 20
0.0
 30
0.0
  9
$UCSXDIR
 10
1.0
 20
0.0
 30
0.0
  9
$UCSYDIR
 10
0.0
 20
1.0
 30
0.0
  9
$UCSORTHOREF
  2

  9
$UCSORTHOVIEW
 70
               0
  9
$UCSORGTOP
 10
0.0
 20
0.0
 30
0.0
  9
$UCSORGBOTTOM
 10
0.0
 20
0.0
 30
0.0
  9
$UCSORGLEFT
 10
0.0
 20
0.0
 30
0.0
  9
$UCSORGRIGHT
 10
0.0
 20
0.0
 30
0.0
  9
$UCSORGFRONT
 10
0.0
 20
0.0
 30
0.0
  9
$UCSORGBACK
 10
0.0
 20
0.0
 30
0.0
  9
$PUCSBASE
  2

  9
$PUCSNAME
  2

  9
$PUCSORG
 10
0.0
 20
0.0
 30
0.0
  9
$PUCSXDIR
 10
1.0
 20
0.0
 30
0.0
  9
$PUCSYDIR
 10
0.0
 20
1.0
 30
0.0
  9
$PUCSORTHOREF
  2

  9
$PUCSORTHOVIEW
 70
               0
  9
$PUCSORGTOP
 10
0.0
 20
0.0
 30
0.0
  9
$PUCSORGBOTTOM
 10
0.0
 20
0.0
 30
0.0
  9
$PUCSORGLEFT
 10
0.0
 20
0.0
 30
0.0
  9
$PUCSORGRIGHT
 10
0.0
 20
0.0
 30
0.0
  9
$PUCSORGFRONT
 10
0.0
 20
0.0
 30
0.0
  9
$PUCSORGBACK
 10
0.0
 20
0.0
 30
0.0
  9
$USERI1
 70
               0
  9
$USERI2
 70
               0
  9
$USERI3
 70
               0
  9
$USERI4
 70
               0
  9
$USERI5
 70
               0
  9
$USERR1
 40
0.0
  9
$USERR2
 40
0.0
  9
$USERR3
 40
0.0
  9
$USERR4
 40
0.0
  9
$USERR5
 40
0.0
  9
$WORLDVIEW
 70
               1
  9
$SHADEDGE
 70
               3
  9
$SHADEDIF
 70
              70
  9
$TILEMODE
 70
               1
  9
$MAXACTVP
 70
              16
  9
$PINSBASE
 10
0.0
 20
0.0
 30
0.0
  9
$PLIMCHECK
 70
               0
  9
$PEXTMIN
 10
1.0000000000000000E+20
 20
1.0000000000000000E+20
 30
1.0000000000000000E+20
  9
$PEXTMAX
 10
-1.0000000000000000E+20
 20
-1.0000000000000000E+20
 30
-1.0000000000000000E+20
  9
$PLIMMIN
 10
0.0
 20
0.0
  9
$PLIMMAX
 10
12.0
 20
9.0
  9
$UNITMODE
 70
               0
  9
$VISRETAIN
 70
               0
  9
$PLINEGEN
 70
               1
  9
$PSLTSCALE
 70
               0
  9
$TREEDEPTH
 70
            3020
  9
$CMLSTYLE
  2
Standard
  9
$CMLJUST
 70
               0
  9
$CMLSCALE
 40
1.0
  9
$PROXYGRAPHICS
 70
               0
  9
$MEASUREMENT
 70
               1
  9
$CELWEIGHT
370
               0
  9
$ENDCAPS
280
               0
  9
$JOINSTYLE
280
               0
  9
$LWDISPLAY
290
               1
  9
$INSUNITS
 70
               4
  9
$HYPERLINKBASE
  1

  9
$XEDIT
290
               1
  9
$CEPSNTYPE
380
               0
  9
$PSTYLEMODE
290
               1
  9
$FINGERPRINTGUID
  2

  9
$VERSIONGUID
  2

  9
$EXTNAMES
290
               1
  9
$PSVPSCALE
 40
0.0
  0
ENDSEC
  0
SECTION
  2
CLASSES
  0
CLASS
  1
LWPOLYLINE
  2
AcDbPolyline
  3
AutoCAD 2000
 90
        0
280
               0
281
               1
  0
CLASS
  1
IMAGE
  2
AcDbRasterImage
  3
ISM
 90
    32895
280
               0
281
               1
  0
CLASS
  1
OLE2FRAME
  2
AcDbOle2Frame
  3
AutoCAD 2000
 90
    32768
280
               0
281
               1
  0
CLASS
  1
HATCH
  2
AcDbHatch
  3
AutoCAD 2000
 90
    32768
280
               0
281
               1
  0
CLASS
  1
DICTIONARYVAR
  2
AcDbDictionaryVar
  3
AutoCAD 2000
 90
    32768
280
               0
281
               0
  0
CLASS
  1
RASTERVARIABLES
  2
AcDbRasterVariables
  3
ISM
 90
    32768
280
               0
281
               0
  0
CLASS
  1
IMAGEDEF
  2
AcDbRasterImageDef
  3
ISM
 90
    32768
280
               0
281
               0
  0
CLASS
  1
IMAGEDEF_REACTOR
  2
AcDbRasterImageDefReactor
  3
ISM
 90
    32769
280
               0
281
               0
  0
CLASS
  1
IDBUFFER
  2
AcDbIdBuffer
  3
AutoCAD 2000
 90
    32768
280
               0
281
               0
  0
CLASS
  1
SPATIAL_FILTER
  2
AcDbSpatialFilter
  3
AutoCAD 2000
 90
    32768
280
               0
281
               0
  0
CLASS
  1
XRECORD
  2
AcDbXrecord
  3
AutoCAD 2000
 90
    32768
280
               0
281
               0
  0
CLASS
  1
SORTENTSTABLE
  2
AcDbSortentsTable
  3
AutoCAD 2000
 90
    32768
280
               0
281
               0
  0
CLASS
  1
LAYER_INDEX
  2
AcDbLayerIndex
  3
AutoCAD 2000
 90
    32768
280
               0
281
               0
  0
CLASS
  1
SPATIAL_INDEX
  2
AcDbSpatialIndex
  3
AutoCAD 2000
 90
    32768
280
               0
281
               0
  0
CLASS
  1
OBJECT_PTR
  2
CAseDLPNTableRecord
  3
"ASE-LPNTableRecord"
 90
    32769
280
               0
281
               0
  0
CLASS
  1
LAYOUT
  2
AcDbLayout
  3
AutoCAD 2000
 90
        0
280
               0
281
               0
  0
CLASS
  1
PLOTSETTINGS
  2
AcDbPlotSettings
  3
AutoCAD 2000
 90
    32768
280
               0
281
               0
  0
CLASS
  1
ACDBDICTIONARYWDFLT
  2
AcDbDictionaryWithDefault
  3
AutoCAD 2000
 90
        0
280
               0
281
               0
  0
CLASS
  1
ACDBPLACEHOLDER
  2
AcDbPlaceHolder
  3
AutoCAD 2000
 90
        0
280
               0
281
               0
  0
ENDSEC
  0
SECTION
  2
TABLES
  0
TABLE
  2
VPORT
  5
7
100
AcDbSymbolTable
 70
               1
  0
VPORT
  5
15
100
AcDbSymbolTableRecord
100
AcDbViewportTableRecord
  2
*ACTIVE
 70
               0
 10
0.0
 20
0.0
 11
1.0
 21
1.0
 12
0.0
 22
0.0
 13
0.0
 23
0.0
 14
1.0
 24
1.0
 15
0.0
 25
0.0
 16
0.0
 26
0.0
 36
1.0
 17
0.0
 27
0.0
 37
0.0
 40
4078.1111111111113
 41
0.688564
 42
50.0
 43
0.0
 44
0.0
 50
0.0
 51
0.0
 71
               0
 72
             100
 73
               1
 74
               1
 75
               0
 76
               0
 77
               0
 78
               0
281
               0
 65
               0
110
0.0
120
0.0
130
0.0
111
1.0
121
0.0
131
0.0
112
0.0
122
1.0
132
0.0
345
0
346
0
 79
               0
146
0.0
  0
ENDTAB
  0
TABLE
  2
LTYPE
  5
4
100
AcDbSymbolTable
 70
              13
  0
LTYPE
  5
11
100
AcDbSymbolTableRecord
100
AcDbLinetypeTableRecord
  2
ByBlock
 70
              64
  3

 72
              65
 73
               0
 40
0.0
  0
LTYPE
  5
12
100
AcDbSymbolTableRecord
100
AcDbLinetypeTableRecord
  2
ByLayer
 70
              64
  3

 72
              65
 73
               0
 40
0.0
  0
LTYPE
  5
13
100
AcDbSymbolTableRecord
100
AcDbLinetypeTableRecord
  2
Continuous
 70
              64
  3
Solid line
 72
              65
 73
               0
 40
0.0
  0
LTYPE
  5
3A
100
AcDbSymbolTableRecord
100
AcDbLinetypeTableRecord
  2
STYLE_01
 70
               0
  3

 72
              65
 73
               2
 40
0.41664
 49
0.20828
 74
               0
 49
-0.20836
 74
               0
  0
LTYPE
  5
3B
100
AcDbSymbolTableRecord
100
AcDbLinetypeTableRecord
  2
STYLE_02
 70
               0
  3

 72
              65
 73
               2
 40
0.6944250000000001
 49
0.48607
 74
               0
 49
-0.2083550000000001
 74
               0
  0
LTYPE
  5
3C
100
AcDbSymbolTableRecord
100
AcDbLinetypeTableRecord
  2
STYLE_03
 70
               0
  3

 72
              65
 73
               2
 40
1.25
 49
1.0416400000000001
 74
               0
 49
-0.2083599999999999
 74
               0
  0
LTYPE
  5
3D
100
AcDbSymbolTableRecord
100
AcDbLinetypeTableRecord
  2
STYLE_04
 70
               0
  3

 72
              65
 73
               2
 40
1.5277099999999999
 49
1.3194249999999998
 74
               0
 49
-0.208285
 74
               0
  0
LTYPE
  5
3E
100
AcDbSymbolTableRecord
100
AcDbLinetypeTableRecord
  2
STYLE_05
 70
               0
  3

 72
              65
 73
               2
 40
0.20828
 49
0.069425
 74
               0
 49
-0.138855
 74
               0
  0
LTYPE
  5
3F
100
AcDbSymbolTableRecord
100
AcDbLinetypeTableRecord
  2
STYLE_06
 70
               0
  3

 72
              65
 73
               4
 40
1.0416400000000001
 49
0.625
 74
               0
 49
-0.20828
 74
               0
 49
0.06943
 74
               0
 49
-0.13893
 74
               0
  0
LTYPE
  5
40
100
AcDbSymbolTableRecord
100
AcDbLinetypeTableRecord
  2
STYLE_07
 70
               0
  3

 72
              65
 73
               6
 40
1.875
 49
0.625
 74
               0
 49
-0.20828
 74
               0
 49
0.6250000000000001
 74
               0
 49
-0.2083599999999999
 74
               0
 49
0.06943
 74
               0
 49
-0.1389299999999999
 74
               0
  0
LTYPE
  5
41
100
AcDbSymbolTableRecord
100
AcDbLinetypeTableRecord
  2
STYLE_08
 70
               0
  3

 72
              65
 73
               6
 40
1.25
 49
0.625
 74
               0
 49
-0.20828
 74
               0
 49
0.06943
 74
               0
 49
-0.13893
 74
               0
 49
0.0694299999999999
 74
               0
 49
-0.13893
 74
               0
  0
LTYPE
  5
42
100
AcDbSymbolTableRecord
100
AcDbLinetypeTableRecord
  2
STYLE_09
 70
               0
  3

 72
              65
 73
               4
 40
5.0
 49
3.75
 74
               0
 49
-0.2777849999999998
 74
               0
 49
0.6944300000000003
 74
               0
 49
-0.2777849999999998
 74
               0
  0
LTYPE
  5
43
100
AcDbSymbolTableRecord
100
AcDbLinetypeTableRecord
  2
STYLE_10
 70
               0
  3

 72
              65
 73
               6
 40
5.9375
 49
3.75
 74
               0
 49
-0.2777849999999998
 74
               0
 49
0.6944300000000003
 74
               0
 49
-0.2777849999999998
 74
               0
 49
0.625
 74
               0
 49
-0.3125
 74
               0
  0
ENDTAB
  0
TABLE
  2
LAYER
  5
2
100
AcDbSymbolTable
 70
               3
  0
LAYER
  5
14
100
AcDbSymbolTableRecord
100
AcDbLayerTableRecord
  2
0
 70
               0
 62
               7
  6
Continuous
290
               1
370
              -3
390
1D
  0
LAYER
  5
44
100
AcDbSymbolTableRecord
100
AcDbLayerTableRecord
  2
一般
 70
               0
 62
               7
  6
Continuous
290
               1
370
               5
390
1F
  0
LAYER
  5
45
100
AcDbSymbolTableRecord
100
AcDbLayerTableRecord
  2
寸法
 70
               0
 62
               7
  6
Continuous
290
               1
370
               5
390
1F
  0
ENDTAB
  0
TABLE
  2
STYLE
  5
3
100
AcDbSymbolTable
 70
               2
  0
STYLE
  5
17
100
AcDbSymbolTableRecord
100
AcDbTextStyleTableRecord
  2
Standard
 70
               0
 40
0.0
 41
1.0
 50
0.0
 71
               0
 42
0.0
  3
txt
  4
BIGFONT.SHX
  0
STYLE
  5
39
100
AcDbSymbolTableRecord
100
AcDbTextStyleTableRecord
  2
ＭＳ ゴシック
 70
               0
 40
84.666666666666657
 41
1.0
 50
0.0
 71
               0
 42
84.666666666666657
  3
ＭＳ ゴシック
  4

1001
ACAD
1000
ＭＳ ゴシック
1071
        0
  0
ENDTAB
  0
TABLE
  2
VIEW
  5
5
100
AcDbSymbolTable
 70
               0
  0
ENDTAB
  0
TABLE
  2
UCS
  5
6
100
AcDbSymbolTable
 70
               0
  0
ENDTAB
  0
TABLE
  2
APPID
  5
8
100
AcDbSymbolTable
 70
               1
  0
APPID
  5
16
100
AcDbSymbolTableRecord
100
AcDbRegAppTableRecord
  2
ACAD
 70
               0
  0
ENDTAB
  0
TABLE
  2
DIMSTYLE
  5
9
100
AcDbSymbolTable
 70
               1
100
AcDbDimStyleTable
 71
               0
  0
DIMSTYLE
105
18
100
AcDbSymbolTableRecord
100
AcDbDimStyleTableRecord
  2
Standard
 70
               0
  3

  4

 40
1.0
 41
0.18
 42
0.0625
 43
0.38
 44
0.18
 45
0.0
 46
0.0
 47
0.0
 48
0.0
 71
               0
 72
               0
 73
               1
 74
               1
 75
               0
 76
               0
 77
               0
 78
               0
 79
               0
140
0.18
141
0.09
142
0.0
143
25.399999999999999
144
1.0
145
0.0
146
1.0
147
0.09
148
0.0
170
               0
171
               2
172
               0
173
               0
174
               0
175
               0
176
               0
177
               0
178
               0
179
               0
271
               4
272
               4
273
               2
274
               2
275
               0
276
               0
277
               2
278
              46
279
               0
280
               0
281
               0
282
               0
283
               1
284
               0
285
               0
286
               0
288
               0
340
17
341
0
342
0
343
0
344
0
371
              -2
372
              -2
  0
ENDTAB
  0
TABLE
  2
BLOCK_RECORD
  5
1
100
AcDbSymbolTable
 70
              22
  0
BLOCK_RECORD
  5
A
100
AcDbSymbolTableRecord
100
AcDbBlockTableRecord
  2
*MODEL_SPACE
340
20
  0
BLOCK_RECORD
  5
B
100
AcDbSymbolTableRecord
100
AcDbBlockTableRecord
  2
*PAPER_SPACE
340
21
  0
BLOCK_RECORD
  5
23
100
AcDbSymbolTableRecord
100
AcDbBlockTableRecord
  2
*U0
340
0
102
{BLKREFS
331
110
102
}
  0
BLOCK_RECORD
  5
24
100
AcDbSymbolTableRecord
100
AcDbBlockTableRecord
  2
*U1
340
0
102
{BLKREFS
331
118
102
}
  0
BLOCK_RECORD
  5
25
100
AcDbSymbolTableRecord
100
AcDbBlockTableRecord
  2
*U2
340
0
102
{BLKREFS
331
120
102
}
  0
BLOCK_RECORD
  5
26
100
AcDbSymbolTableRecord
100
AcDbBlockTableRecord
  2
*U3
340
0
102
{BLKREFS
331
128
102
}
  0
BLOCK_RECORD
  5
27
100
AcDbSymbolTableRecord
100
AcDbBlockTableRecord
  2
*U4
340
0
102
{BLKREFS
331
130
102
}
  0
BLOCK_RECORD
  5
28
100
AcDbSymbolTableRecord
100
AcDbBlockTableRecord
  2
*U5
340
0
102
{BLKREFS
331
138
102
}
  0
BLOCK_RECORD
  5
29
100
AcDbSymbolTableRecord
100
AcDbBlockTableRecord
  2
*U6
340
0
102
{BLKREFS
331
140
102
}
  0
BLOCK_RECORD
  5
2A
100
AcDbSymbolTableRecord
100
AcDbBlockTableRecord
  2
*U7
340
0
102
{BLKREFS
331
148
102
}
  0
BLOCK_RECORD
  5
2B
100
AcDbSymbolTableRecord
100
AcDbBlockTableRecord
  2
*U8
340
0
102
{BLKREFS
331
150
102
}
  0
BLOCK_RECORD
  5
2C
100
AcDbSymbolTableRecord
100
AcDbBlockTableRecord
  2
*U9
340
0
102
{BLKREFS
331
15B
102
}
  0
BLOCK_RECORD
  5
2D
100
AcDbSymbolTableRecord
100
AcDbBlockTableRecord
  2
*U10
340
0
102
{BLKREFS
331
164
102
}
  0
BLOCK_RECORD
  5
2E
100
AcDbSymbolTableRecord
100
AcDbBlockTableRecord
  2
*U11
340
0
102
{BLKREFS
331
171
102
}
  0
BLOCK_RECORD
  5
2F
100
AcDbSymbolTableRecord
100
AcDbBlockTableRecord
  2
*U12
340
0
102
{BLKREFS
331
17B
102
}
  0
BLOCK_RECORD
  5
30
100
AcDbSymbolTableRecord
100
AcDbBlockTableRecord
  2
*U13
340
0
102
{BLKREFS
331
189
102
}
  0
BLOCK_RECORD
  5
31
100
AcDbSymbolTableRecord
100
AcDbBlockTableRecord
  2
*U14
340
0
102
{BLKREFS
331
9B
102
}
  0
BLOCK_RECORD
  5
32
100
AcDbSymbolTableRecord
100
AcDbBlockTableRecord
  2
*U15
340
0
102
{BLKREFS
331
9C
102
}
  0
BLOCK_RECORD
  5
33
100
AcDbSymbolTableRecord
100
AcDbBlockTableRecord
  2
*U16
340
0
102
{BLKREFS
331
18A
102
}
  0
BLOCK_RECORD
  5
34
100
AcDbSymbolTableRecord
100
AcDbBlockTableRecord
  2
*U17
340
0
102
{BLKREFS
331
18B
102
}
  0
BLOCK_RECORD
  5
35
100
AcDbSymbolTableRecord
100
AcDbBlockTableRecord
  2
*U18
340
0
102
{BLKREFS
331
194
102
}
  0
BLOCK_RECORD
  5
36
100
AcDbSymbolTableRecord
100
AcDbBlockTableRecord
  2
*U19
340
0
102
{BLKREFS
331
19C
102
}
  0
BLOCK_RECORD
  5
37
100
AcDbSymbolTableRecord
100
AcDbBlockTableRecord
  2
*U20
340
0
102
{BLKREFS
331
1A6
102
}
  0
BLOCK_RECORD
  5
38
100
AcDbSymbolTableRecord
100
AcDbBlockTableRecord
  2
*U21
340
0
102
{BLKREFS
331
1A9
102
}
  0
ENDTAB
  0
ENDSEC
  0
SECTION
  2
BLOCKS
  0
BLOCK
  5
D
100
AcDbEntity
  8
0
100
AcDbBlockBegin
  2
*MODEL_SPACE
 70
               0
 10
0.0
 20
0.0
 30
0.0
  3
*MODEL_SPACE
  1

  0
ENDBLK
  5
E
100
AcDbEntity
  8
0
100
AcDbBlockEnd
  0
BLOCK
  5
F
100
AcDbEntity
 67
               1
  8
0
100
AcDbBlockBegin
  2
*PAPER_SPACE
 70
               0
 10
0.0
 20
0.0
 30
0.0
  3
*PAPER_SPACE
  1

  0
ENDBLK
  5
10
100
AcDbEntity
 67
               1
  8
0
100
AcDbBlockEnd
  0
BLOCK
  5
46
100
AcDbEntity
  8
寸法
100
AcDbBlockBegin
  2
*U0
 70
               1
 10
0.0
 20
0.0
 30
0.0
  3
*U0
  1

  0
MTEXT
  5
47
100
AcDbEntity
  8
寸法
 62
               7
100
AcDbMText
 10
-1768.5
 20
-1660.3333333333333
 30
0.0
 40
67.733333333333334
 41
0.0
 71
               1
 72
               1
  1
910
  7
ＭＳ ゴシック
 73
               1
 44
1.0
  0
ENDBLK
  5
48
100
AcDbEntity
  8
寸法
100
AcDbBlockEnd
  0
BLOCK
  5
49
100
AcDbEntity
  8
寸法
100
AcDbBlockBegin
  2
*U1
 70
               1
 10
0.0
 20
0.0
 30
0.0
  3
*U1
  1

  0
MTEXT
  5
4A
100
AcDbEntity
  8
寸法
 62
               7
100
AcDbMText
 10
-858.5
 20
-1660.3333333333333
 30
0.0
 40
67.733333333333334
 41
0.0
 71
               1
 72
               1
  1
910
  7
ＭＳ ゴシック
 73
               1
 44
1.0
  0
ENDBLK
  5
4B
100
AcDbEntity
  8
寸法
100
AcDbBlockEnd
  0
BLOCK
  5
4C
100
AcDbEntity
  8
寸法
100
AcDbBlockBegin
  2
*U2
 70
               1
 10
0.0
 20
0.0
 30
0.0
  3
*U2
  1

  0
MTEXT
  5
4D
100
AcDbEntity
  8
寸法
 62
               7
100
AcDbMText
 10
51.5
 20
-1660.3333333333333
 30
0.0
 40
67.733333333333334
 41
0.0
 71
               1
 72
               1
  1
910
  7
ＭＳ ゴシック
 73
               1
 44
1.0
  0
ENDBLK
  5
4E
100
AcDbEntity
  8
寸法
100
AcDbBlockEnd
  0
BLOCK
  5
4F
100
AcDbEntity
  8
寸法
100
AcDbBlockBegin
  2
*U3
 70
               1
 10
0.0
 20
0.0
 30
0.0
  3
*U3
  1

  0
MTEXT
  5
50
100
AcDbEntity
  8
寸法
 62
               7
100
AcDbMText
 10
706.5
 20
-1660.3333333333333
 30
0.0
 40
67.733333333333334
 41
0.0
 71
               1
 72
               1
  1
400
  7
ＭＳ ゴシック
 73
               1
 44
1.0
  0
ENDBLK
  5
51
100
AcDbEntity
  8
寸法
100
AcDbBlockEnd
  0
BLOCK
  5
52
100
AcDbEntity
  8
寸法
100
AcDbBlockBegin
  2
*U4
 70
               1
 10
0.0
 20
0.0
 30
0.0
  3
*U4
  1

  0
MTEXT
  5
53
100
AcDbEntity
  8
寸法
 62
               7
100
AcDbMText
 10
-1768.5
 20
1936.4666666666667
 30
0.0
 40
67.733333333333334
 41
0.0
 71
               1
 72
               1
  1
910
  7
ＭＳ ゴシック
 73
               1
 44
1.0
  0
ENDBLK
  5
54
100
AcDbEntity
  8
寸法
100
AcDbBlockEnd
  0
BLOCK
  5
55
100
AcDbEntity
  8
寸法
100
AcDbBlockBegin
  2
*U5
 70
               1
 10
0.0
 20
0.0
 30
0.0
  3
*U5
  1

  0
MTEXT
  5
56
100
AcDbEntity
  8
寸法
 62
               7
100
AcDbMText
 10
-858.5
 20
1936.4666666666667
 30
0.0
 40
67.733333333333334
 41
0.0
 71
               1
 72
               1
  1
910
  7
ＭＳ ゴシック
 73
               1
 44
1.0
  0
ENDBLK
  5
57
100
AcDbEntity
  8
寸法
100
AcDbBlockEnd
  0
BLOCK
  5
58
100
AcDbEntity
  8
寸法
100
AcDbBlockBegin
  2
*U6
 70
               1
 10
0.0
 20
0.0
 30
0.0
  3
*U6
  1

  0
MTEXT
  5
59
100
AcDbEntity
  8
寸法
 62
               7
100
AcDbMText
 10
51.5
 20
1936.4666666666667
 30
0.0
 40
67.733333333333334
 41
0.0
 71
               1
 72
               1
  1
910
  7
ＭＳ ゴシック
 73
               1
 44
1.0
  0
ENDBLK
  5
5A
100
AcDbEntity
  8
寸法
100
AcDbBlockEnd
  0
BLOCK
  5
5B
100
AcDbEntity
  8
寸法
100
AcDbBlockBegin
  2
*U7
 70
               1
 10
0.0
 20
0.0
 30
0.0
  3
*U7
  1

  0
MTEXT
  5
5C
100
AcDbEntity
  8
寸法
 62
               7
100
AcDbMText
 10
706.5
 20
1936.4666666666667
 30
0.0
 40
67.733333333333334
 41
0.0
 71
               1
 72
               1
  1
400
  7
ＭＳ ゴシック
 73
               1
 44
1.0
  0
ENDBLK
  5
5D
100
AcDbEntity
  8
寸法
100
AcDbBlockEnd
  0
BLOCK
  5
5E
100
AcDbEntity
  8
寸法
100
AcDbBlockBegin
  2
*U8
 70
               1
 10
0.0
 20
0.0
 30
0.0
  3
*U8
  1

  0
MTEXT
  5
5F
100
AcDbEntity
  8
寸法
 62
               7
100
AcDbMText
 10
-2756.4666666666662
 20
5.3333333333333428
 30
0.0
 40
67.733333333333334
 41
0.0
 71
               1
 72
               1
  1
3000
  7
ＭＳ ゴシック
 11
0.0
 21
1.0
 31
0.0
 73
               1
 44
1.0
  0
ENDBLK
  5
60
100
AcDbEntity
  8
寸法
100
AcDbBlockEnd
  0
BLOCK
  5
61
100
AcDbEntity
  8
寸法
100
AcDbBlockBegin
  2
*U9
 70
               1
 10
0.0
 20
0.0
 30
0.0
  3
*U9
  1

  0
MTEXT
  5
62
100
AcDbEntity
  8
寸法
 62
               7
100
AcDbMText
 10
-1557.0
 20
-1501.2666666666667
 30
0.0
 40
67.733333333333334
 41
0.0
 71
               1
 72
               1
  1
150
  7
ＭＳ ゴシック
 73
               1
 44
1.0
  0
ENDBLK
  5
63
100
AcDbEntity
  8
寸法
100
AcDbBlockEnd
  0
BLOCK
  5
64
100
AcDbEntity
  8
寸法
100
AcDbBlockBegin
  2
*U10
 70
               1
 10
0.0
 20
0.0
 30
0.0
  3
*U10
  1

  0
MTEXT
  5
65
100
AcDbEntity
  8
寸法
 62
               7
100
AcDbMText
 10
780.0
 20
-1500.3333333333333
 30
0.0
 40
67.733333333333334
 41
0.0
 71
               1
 72
               1
  1
150
  7
ＭＳ ゴシック
 73
               1
 44
1.0
  0
ENDBLK
  5
66
100
AcDbEntity
  8
寸法
100
AcDbBlockEnd
  0
BLOCK
  5
67
100
AcDbEntity
  8
寸法
100
AcDbBlockBegin
  2
*U11
 70
               1
 10
0.0
 20
0.0
 30
0.0
  3
*U11
  1

  0
MTEXT
  5
68
100
AcDbEntity
  8
寸法
 62
               7
100
AcDbMText
 10
-130.0
 20
-1500.3333333333333
 30
0.0
 40
67.733333333333334
 41
0.0
 71
               1
 72
               1
  1
150
  7
ＭＳ ゴシック
 73
               1
 44
1.0
  0
ENDBLK
  5
69
100
AcDbEntity
  8
寸法
100
AcDbBlockEnd
  0
BLOCK
  5
6A
100
AcDbEntity
  8
寸法
100
AcDbBlockBegin
  2
*U12
 70
               1
 10
0.0
 20
0.0
 30
0.0
  3
*U12
  1

  0
MTEXT
  5
6B
100
AcDbEntity
  8
寸法
 62
               7
100
AcDbMText
 10
-879.66666666666663
 20
-1845.3333333333333
 30
0.0
 40
67.733333333333334
 41
0.0
 71
               1
 72
               1
  1
3530
  7
ＭＳ ゴシック
 73
               1
 44
1.0
  0
ENDBLK
  5
6C
100
AcDbEntity
  8
寸法
100
AcDbBlockEnd
  0
BLOCK
  5
6D
100
AcDbEntity
  8
一般
100
AcDbBlockBegin
  2
*U13
 70
               1
 10
0.0
 20
0.0
 30
0.0
  3
*U13
  1

  0
SPLINE
  5
6E
100
AcDbEntity
  8
一般
370
               9
  6
Continuous
 62
               7
100
AcDbSpline
210
0.0
220
0.0
230
1.0
 70
               9
 71
               2
 72
              42
 73
              39
 74
               0
 42
0.000001
 43
0.000001
 40
0.0
 40
0.0
 40
0.0
 40
1.0
 40
1.0
 40
2.0
 40
2.0
 40
3.0
 40
3.0
 40
4.0
 40
4.0
 40
5.0
 40
5.0
 40
6.0
 40
6.0
 40
7.0
 40
7.0
 40
8.0
 40
8.0
 40
9.0
 40
9.0
 40
10.0
 40
10.0
 40
11.0
 40
11.0
 40
12.0
 40
12.0
 40
13.0
 40
13.0
 40
14.0
 40
14.0
 40
15.0
 40
15.0
 40
16.0
 40
16.0
 40
17.0
 40
17.0
 40
18.0
 40
18.0
 40
19.0
 40
19.0
 40
19.0
 10
1266.441014524519
 20
-1554.7953687888773
 30
0.0
 10
1278.5701131715623
 20
-1554.7953687888773
 30
0.0
 10
1281.734222959521
 20
-1557.7616127100939
 30
0.0
 10
1283.3162778535007
 20
-1559.2447346707022
 30
0.0
 10
1284.89833274748
 20
-1560.7278566313105
 30
0.0
 10
1292.8085929118331
 20
-1568.1434530233969
 30
0.0
 10
1292.8085929118331
 20
-1573.3343776503666
 30
0.0
 10
1292.8085929118331
 20
-1575.9298399638515
 30
0.0
 10
1292.8085929118331
 20
-1578.5253022773366
 30
0.0
 10
1292.8085929118331
 20
-1587.9184065377497
 30
0.0
 10
1289.9081629132997
 20
-1590.6374686809027
 30
0.0
 10
1288.457947914033
 20
-1591.9969997524793
 30
0.0
 10
1287.0077329147664
 20
-1593.3565308240559
 30
0.0
 10
1282.2615730013426
 20
-1597.8058922355624
 30
0.0
 10
1280.6795133388487
 20
-1598.3002647323258
 30
0.0
 10
1279.8884835076014
 20
-1598.5474509807075
 30
0.0
 10
1279.0974536763545
 20
-1598.7946372290892
 30
0.0
 10
1284.89833274748
 20
-1601.7608900909422
 30
0.0
 10
1286.7440626623702
 20
-1603.491198299932
 30
0.0
 10
1287.6669276198154
 20
-1604.3563524044271
 30
0.0
 10
1288.5897925772606
 20
-1605.2215065089219
 30
0.0
 10
1295.4453526579705
 20
-1611.648357907482
 30
0.0
 10
1295.4453526579705
 20
-1617.3336550312151
 30
0.0
 10
1295.4453526579705
 20
-1620.1763035930817
 30
0.0
 10
1295.4453526579705
 20
-1623.0189521549482
 30
0.0
 10
1295.4453526579705
 20
-1635.3783092772142
 30
0.0
 10
1292.0175726176153
 20
-1638.5917349764941
 30
0.0
 10
1290.303682597438
 20
-1640.1984478261343
 30
0.0
 10
1288.5897925772606
 20
-1641.8051606757742
 30
0.0
 10
1278.5701131715623
 20
-1651.1616440889723
 30
0.0
 10
1271.9782138062192
 20
-1651.1616440889723
 30
0.0
 10
1268.6822641235476
 20
-1651.1616440889723
 30
0.0
 10
1265.3863144408758
 20
-1651.1616440889723
 30
0.0
 10
1252.0267482579645
 20
-1651.1616440889723
 30
0.0
 10
1238.6671820750532
 20
-1651.1616440889723
 30
0.0
 10
1238.6671820750532
 20
-1602.9785064389248
 30
0.0
 10
1238.6671820750532
 20
-1554.7953687888773
 30
0.0
 10
1252.5540982997861
 20
-1554.7953687888773
 30
0.0
 10
1266.441014524519
 20
-1554.7953687888773
 30
0.0
  0
SPLINE
  5
6F
100
AcDbEntity
  8
一般
370
               9
  6
Continuous
 62
               7
100
AcDbSpline
210
0.0
220
0.0
230
1.0
 70
               9
 71
               2
 72
              26
 73
              23
 74
               0
 42
0.000001
 43
0.000001
 40
0.0
 40
0.0
 40
0.0
 40
1.0
 40
1.0
 40
2.0
 40
2.0
 40
3.0
 40
3.0
 40
4.0
 40
4.0
 40
5.0
 40
5.0
 40
6.0
 40
6.0
 40
7.0
 40
7.0
 40
8.0
 40
8.0
 40
9.0
 40
9.0
 40
10.0
 40
10.0
 40
11.0
 40
11.0
 40
11.0
 10
1251.147834700605
 20
-1602.7130142372539
 30
0.0
 10
1251.147834700605
 20
-1622.259087456514
 30
0.0
 10
1251.147834700605
 20
-1641.8051606757742
 30
0.0
 10
1257.2123744870973
 20
-1641.8051606757742
 30
0.0
 10
1263.2769142735897
 20
-1641.8051606757742
 30
0.0
 10
1272.2418935956446
 20
-1641.8051606757742
 30
0.0
 10
1275.4060033836035
 20
-1638.8389167545577
 30
0.0
 10
1276.9880582775829
 20
-1637.3557947939494
 30
0.0
 10
1278.5701131715623
 20
-1635.8726728333411
 30
0.0
 10
1283.8436326638371
 20
-1630.9289478657076
 30
0.0
 10
1283.8436326638371
 20
-1626.9739500103278
 30
0.0
 10
1283.8436326638371
 20
-1624.996451082638
 30
0.0
 10
1283.8436326638371
 20
-1623.0189521549482
 30
0.0
 10
1283.8436326638371
 20
-1614.1202293319352
 30
0.0
 10
1280.9431931282741
 20
-1611.4011761294187
 30
0.0
 10
1279.4929733604927
 20
-1610.0416495281602
 30
0.0
 10
1278.0427535927113
 20
-1608.6821229269019
 30
0.0
 10
1271.7145340167936
 20
-1602.7130142372539
 30
0.0
 10
1268.5504242288348
 20
-1602.7130142372539
 30
0.0
 10
1266.9683693348552
 20
-1602.7130142372539
 30
0.0
 10
1265.3863144408758
 20
-1602.7130142372539
 30
0.0
 10
1258.2670745707405
 20
-1602.7130142372539
 30
0.0
 10
1251.147834700605
 20
-1602.7130142372539
 30
0.0
  0
SPLINE
  5
70
100
AcDbEntity
  8
一般
370
               9
  6
Continuous
 62
               7
100
AcDbSpline
210
0.0
220
0.0
230
1.0
 70
               9
 71
               2
 72
              26
 73
              23
 74
               0
 42
0.000001
 43
0.000001
 40
0.0
 40
0.0
 40
0.0
 40
1.0
 40
1.0
 40
2.0
 40
2.0
 40
3.0
 40
3.0
 40
4.0
 40
4.0
 40
5.0
 40
5.0
 40
6.0
 40
6.0
 40
7.0
 40
7.0
 40
8.0
 40
8.0
 40
9.0
 40
9.0
 40
10.0
 40
10.0
 40
11.0
 40
11.0
 40
11.0
 10
1266.96837410337
 20
-1593.3565308240559
 30
0.0
 10
1272.7692341004367
 20
-1593.3565308240559
 30
0.0
 10
1274.8786438047525
 20
-1591.3790318963661
 30
0.0
 10
1275.9333486569103
 20
-1590.390282432521
 30
0.0
 10
1276.9880535090683
 20
-1589.4015329686761
 30
0.0
 10
1281.7342134224918
 20
-1584.9521715571695
 30
0.0
 10
1281.7342134224918
 20
-1581.7387369172529
 30
0.0
 10
1281.7342134224918
 20
-1580.1320195972949
 30
0.0
 10
1281.7342134224918
 20
-1578.5253022773366
 30
0.0
 10
1281.7342134224918
 20
-1572.0984508787767
 30
0.0
 10
1279.8884835076014
 20
-1570.3681426697867
 30
0.0
 10
1278.9656185501563
 20
-1569.5029885652918
 30
0.0
 10
1278.0427535927113
 20
-1568.637834460797
 30
0.0
 10
1273.2965936792878
 20
-1564.1518522020756
 30
0.0
 10
1270.923513722576
 20
-1564.1518522020756
 30
0.0
 10
1269.73697374422
 20
-1564.1518522020756
 30
0.0
 10
1268.550433765864
 20
-1564.1518522020756
 30
0.0
 10
1259.8491342332345
 20
-1564.1518522020756
 30
0.0
 10
1251.147834700605
 20
-1564.1518522020756
 30
0.0
 10
1251.147834700605
 20
-1578.7541915130657
 30
0.0
 10
1251.147834700605
 20
-1593.3565308240559
 30
0.0
 10
1259.0581044019875
 20
-1593.3565308240559
 30
0.0
 10
1266.96837410337
 20
-1593.3565308240559
 30
0.0
  0
SPLINE
  5
71
100
AcDbEntity
  8
一般
370
               9
  6
Continuous
 62
               7
100
AcDbSpline
210
0.0
220
0.0
230
1.0
 70
               9
 71
               2
 72
              66
 73
              63
 74
               0
 42
0.000001
 43
0.000001
 40
0.0
 40
0.0
 40
0.0
 40
1.0
 40
1.0
 40
2.0
 40
2.0
 40
3.0
 40
3.0
 40
4.0
 40
4.0
 40
5.0
 40
5.0
 40
6.0
 40
6.0
 40
7.0
 40
7.0
 40
8.0
 40
8.0
 40
9.0
 40
9.0
 40
10.0
 40
10.0
 40
11.0
 40
11.0
 40
12.0
 40
12.0
 40
13.0
 40
13.0
 40
14.0
 40
14.0
 40
15.0
 40
15.0
 40
16.0
 40
16.0
 40
17.0
 40
17.0
 40
18.0
 40
18.0
 40
19.0
 40
19.0
 40
20.0
 40
20.0
 40
21.0
 40
21.0
 40
22.0
 40
22.0
 40
23.0
 40
23.0
 40
24.0
 40
24.0
 40
25.0
 40
25.0
 40
26.0
 40
26.0
 40
27.0
 40
27.0
 40
28.0
 40
28.0
 40
29.0
 40
29.0
 40
30.0
 40
30.0
 40
31.0
 40
31.0
 40
31.0
 10
1317.5618846169618
 20
-1588.4127879751495
 30
0.0
 10
1336.019183765864
 20
-1571.6040694413769
 30
0.0
 10
1340.2379936374662
 20
-1560.9750294687374
 30
0.0
 10
1342.3473985732671
 20
-1555.6605094824176
 30
0.0
 10
1344.4568035090683
 20
-1550.3459894960977
 30
0.0
 10
1350.2576730431645
 20
-1552.3234884237877
 30
0.0
 10
1356.0585425772606
 20
-1554.3009873514775
 30
0.0
 10
1358.167942744547
 20
-1556.2784773385308
 30
0.0
 10
1356.3222128296566
 20
-1556.5256680572306
 30
0.0
 10
1355.3993478722114
 20
-1556.6492634165807
 30
0.0
 10
1354.4764829147664
 20
-1556.7728587759307
 30
0.0
 10
1351.3123731268074
 20
-1562.2109741216004
 30
0.0
 10
1348.1482633388487
 20
-1567.6490894672702
 30
0.0
 10
1379.7893516814079
 20
-1567.6490894672702
 30
0.0
 10
1411.4304400239671
 20
-1567.6490894672702
 30
0.0
 10
1411.4304400239671
 20
-1572.3273311738694
 30
0.0
 10
1411.4304400239671
 20
-1577.0055728804684
 30
0.0
 10
1392.7094610856393
 20
-1577.0055728804684
 30
0.0
 10
1373.9884821473117
 20
-1577.0055728804684
 30
0.0
 10
1373.9884821473117
 20
-1589.1360407670054
 30
0.0
 10
1373.9884821473117
 20
-1601.2665086535424
 30
0.0
 10
1399.8287104928045
 20
-1601.2665086535424
 30
0.0
 10
1425.668938838297
 20
-1601.2665086535424
 30
0.0
 10
1425.668938838297
 20
-1605.9447503601414
 30
0.0
 10
1425.668938838297
 20
-1610.6229920667404
 30
0.0
 10
1400.8834201134769
 20
-1610.6229920667404
 30
0.0
 10
1376.0979013886567
 20
-1610.6229920667404
 30
0.0
 10
1390.3363811289278
 20
-1642.7939235505739
 30
0.0
 10
1408.2663397730378
 20
-1645.5129767530905
 30
0.0
 10
1417.2313190950927
 20
-1646.8725033543487
 30
0.0
 10
1426.1962984171478
 20
-1648.232029955607
 30
0.0
 10
1423.8232089234066
 20
-1654.1645177980402
 30
0.0
 10
1421.4501194296654
 20
-1660.0970056404733
 30
0.0
 10
1386.6449212991472
 20
-1653.1757728045136
 30
0.0
 10
1378.2073015559431
 20
-1636.3670542707409
 30
0.0
 10
1373.9884916843412
 20
-1627.9626950038546
 30
0.0
 10
1369.7696818127392
 20
-1619.5583357369683
 30
0.0
 10
1359.7500024070409
 20
-1650.2095199426603
 30
0.0
 10
1336.8102135971112
 20
-1656.3891985037935
 30
0.0
 10
1325.3403191921464
 20
-1659.4790377843601
 30
0.0
 10
1313.8704247871815
 20
-1662.5688770649265
 30
0.0
 10
1312.0246853352619
 20
-1656.8835710005569
 30
0.0
 10
1310.1789458833423
 20
-1651.1982649361871
 30
0.0
 10
1354.4764829147664
 20
-1642.2995421131741
 30
0.0
 10
1358.167942744547
 20
-1626.4612670899573
 30
0.0
 10
1360.0136726594371
 20
-1618.542129578349
 30
0.0
 10
1361.8594025743273
 20
-1610.6229920667404
 30
0.0
 10
1336.2828540182602
 20
-1610.6229920667404
 30
0.0
 10
1310.7063054621931
 20
-1610.6229920667404
 30
0.0
 10
1310.7063054621931
 20
-1605.9447503601414
 30
0.0
 10
1310.7063054621931
 20
-1601.2665086535424
 30
0.0
 10
1336.7320767150668
 20
-1601.2665086535424
 30
0.0
 10
1362.7578479679405
 20
-1601.2665086535424
 30
0.0
 10
1362.7578479679405
 20
-1589.1360407670054
 30
0.0
 10
1362.7578479679405
 20
-1577.0055728804684
 30
0.0
 10
1352.5526256548612
 20
-1577.0055728804684
 30
0.0
 10
1342.347403341782
 20
-1577.0055728804684
 30
0.0
 10
1333.909764524519
 20
-1588.8888589889418
 30
0.0
 10
1329.6909546529168
 20
-1592.6058123967887
 30
0.0
 10
1327.5815497171159
 20
-1594.4642891007122
 30
0.0
 10
1325.4721447813149
 20
-1596.3227658046358
 30
0.0
 10
1321.5170146991384
 20
-1592.3677768898926
 30
0.0
 10
1317.5618846169618
 20
-1588.4127879751495
 30
0.0
  0
SPLINE
  5
72
100
AcDbEntity
  8
一般
370
               9
  6
Continuous
 62
               7
100
AcDbSpline
210
0.0
220
0.0
230
1.0
 70
               9
 71
               2
 72
              60
 73
              57
 74
               0
 42
0.000001
 43
0.000001
 40
0.0
 40
0.0
 40
0.0
 40
1.0
 40
1.0
 40
2.0
 40
2.0
 40
3.0
 40
3.0
 40
4.0
 40
4.0
 40
5.0
 40
5.0
 40
6.0
 40
6.0
 40
7.0
 40
7.0
 40
8.0
 40
8.0
 40
9.0
 40
9.0
 40
10.0
 40
10.0
 40
11.0
 40
11.0
 40
12.0
 40
12.0
 40
13.0
 40
13.0
 40
14.0
 40
14.0
 40
15.0
 40
15.0
 40
16.0
 40
16.0
 40
17.0
 40
17.0
 40
18.0
 40
18.0
 40
19.0
 40
19.0
 40
20.0
 40
20.0
 40
21.0
 40
21.0
 40
22.0
 40
22.0
 40
23.0
 40
23.0
 40
24.0
 40
24.0
 40
25.0
 40
25.0
 40
26.0
 40
26.0
 40
27.0
 40
27.0
 40
28.0
 40
28.0
 40
28.0
 10
1472.0995782939517
 20
-1549.851625939971
 30
0.0
 10
1476.3183977025833
 20
-1550.3459894960977
 30
0.0
 10
1474.4726677876931
 20
-1551.5819252083243
 30
0.0
 10
1473.5498028302482
 20
-1552.1998930644377
 30
0.0
 10
1472.626937872803
 20
-1552.8178609205509
 30
0.0
 10
1472.626937872803
 20
-1561.7165926842006
 30
0.0
 10
1472.626937872803
 20
-1570.6153244478503
 30
0.0
 10
1478.4277978698697
 20
-1570.6153244478503
 30
0.0
 10
1484.2286578669364
 20
-1570.6153244478503
 30
0.0
 10
1485.283367487609
 20
-1569.6265794543237
 30
0.0
 10
1486.3380771082816
 20
-1568.637834460797
 30
0.0
 10
1490.2932071904579
 20
-1571.8512601600769
 30
0.0
 10
1494.2483372726344
 20
-1575.0646858593568
 30
0.0
 10
1493.1936371889915
 20
-1575.80624907482
 30
0.0
 10
1492.1389371053483
 20
-1576.5478122902832
 30
0.0
 10
1483.701317362144
 20
-1591.3790229557294
 30
0.0
 10
1478.1641276174735
 20
-1597.0643290200992
 30
0.0
 10
1475.3955327451381
 20
-1599.9069820522841
 30
0.0
 10
1472.626937872803
 20
-1602.7496350844688
 30
0.0
 10
1472.626937872803
 20
-1603.7383800779953
 30
0.0
 10
1472.626937872803
 20
-1604.7271250715221
 30
0.0
 10
1483.701317362144
 20
-1608.6821229269019
 30
0.0
 10
1488.7111570649931
 20
-1611.8955486261818
 30
0.0
 10
1491.2160769164177
 20
-1613.5022614758218
 30
0.0
 10
1493.7209967678423
 20
-1615.1089743254618
 30
0.0
 10
1490.5568869798835
 20
-1620.0527171743684
 30
0.0
 10
1487.3927771919246
 20
-1624.9964600232747
 30
0.0
 10
1481.0645576160068
 20
-1619.0639721808416
 30
0.0
 10
1476.8457477444049
 20
-1616.5921007563884
 30
0.0
 10
1474.7363428086039
 20
-1615.3561650441618
 30
0.0
 10
1472.626937872803
 20
-1614.1202293319352
 30
0.0
 10
1472.626937872803
 20
-1638.8389256951941
 30
0.0
 10
1472.626937872803
 20
-1663.557622058453
 30
0.0
 10
1467.0116207831172
 20
-1663.557622058453
 30
0.0
 10
1461.3963036934315
 20
-1663.557622058453
 30
0.0
 10
1461.3963036934315
 20
-1638.0973624797307
 30
0.0
 10
1461.3963036934315
 20
-1612.6371029010086
 30
0.0
 10
1454.306342503618
 20
-1619.5583357369683
 30
0.0
 10
1449.7554914157022
 20
-1622.7717703768849
 30
0.0
 10
1447.4800658717445
 20
-1624.378487696843
 30
0.0
 10
1445.2046403277868
 20
-1625.9852050168013
 30
0.0
 10
1442.8315603710748
 20
-1620.7942803898313
 30
0.0
 10
1440.4584804143631
 20
-1615.6033557628616
 30
0.0
 10
1465.243999139183
 20
-1600.753816792535
 30
0.0
 10
1471.3085484627047
 20
-1590.3628123267918
 30
0.0
 10
1474.3408231244657
 20
-1585.1673100939202
 30
0.0
 10
1477.3730977862265
 20
-1579.9718078610483
 30
0.0
 10
1461.0251988046105
 20
-1579.9718078610483
 30
0.0
 10
1444.6772998229944
 20
-1579.9718078610483
 30
0.0
 10
1444.6772998229944
 20
-1575.2935661544493
 30
0.0
 10
1444.6772998229944
 20
-1570.6153244478503
 30
0.0
 10
1453.036801758213
 20
-1570.6153244478503
 30
0.0
 10
1461.3963036934315
 20
-1570.6153244478503
 30
0.0
 10
1461.3963036934315
 20
-1560.2334751939106
 30
0.0
 10
1461.3963036934315
 20
-1549.851625939971
 30
0.0
 10
1466.7479409936916
 20
-1549.851625939971
 30
0.0
 10
1472.0995782939517
 20
-1549.851625939971
 30
0.0
  0
SPLINE
  5
73
100
AcDbEntity
  8
一般
370
               9
  6
Continuous
 62
               7
100
AcDbSpline
210
0.0
220
0.0
230
1.0
 70
               9
 71
               2
 72
              60
 73
              57
 74
               0
 42
0.000001
 43
0.000001
 40
0.0
 40
0.0
 40
0.0
 40
1.0
 40
1.0
 40
2.0
 40
2.0
 40
3.0
 40
3.0
 40
4.0
 40
4.0
 40
5.0
 40
5.0
 40
6.0
 40
6.0
 40
7.0
 40
7.0
 40
8.0
 40
8.0
 40
9.0
 40
9.0
 40
10.0
 40
10.0
 40
11.0
 40
11.0
 40
12.0
 40
12.0
 40
13.0
 40
13.0
 40
14.0
 40
14.0
 40
15.0
 40
15.0
 40
16.0
 40
16.0
 40
17.0
 40
17.0
 40
18.0
 40
18.0
 40
19.0
 40
19.0
 40
20.0
 40
20.0
 40
21.0
 40
21.0
 40
22.0
 40
22.0
 40
23.0
 40
23.0
 40
24.0
 40
24.0
 40
25.0
 40
25.0
 40
26.0
 40
26.0
 40
27.0
 40
27.0
 40
28.0
 40
28.0
 40
28.0
 10
1529.9519998708247
 20
-1622.4879677516067
 30
0.0
 10
1525.5476375548121
 20
-1622.4879677516067
 30
0.0
 10
1521.1432752387996
 20
-1622.4879677516067
 30
0.0
 10
1521.1432752387996
 20
-1624.7309588809674
 30
0.0
 10
1521.1432752387996
 20
-1626.9739500103281
 30
0.0
 10
1521.1432752387996
 20
-1655.6476442289668
 30
0.0
 10
1502.9496463422934
 20
-1659.6026331437099
 30
0.0
 10
1493.8528318940403
 20
-1661.5801276010816
 30
0.0
 10
1484.7560174457872
 20
-1663.557622058453
 30
0.0
 10
1482.910287530897
 20
-1658.3666974314833
 30
0.0
 10
1481.0645576160068
 20
-1653.1757728045136
 30
0.0
 10
1509.9126410594283
 20
-1646.2545399685537
 30
0.0
 10
1509.9126410594283
 20
-1637.1086174862041
 30
0.0
 10
1509.9126410594283
 20
-1632.5356562450293
 30
0.0
 10
1509.9126410594283
 20
-1627.9626950038546
 30
0.0
 10
1509.9126410594283
 20
-1625.2253313777305
 30
0.0
 10
1509.9126410594283
 20
-1622.4879677516067
 30
0.0
 10
1507.3540086583062
 20
-1622.4879677516067
 30
0.0
 10
1504.7953762571838
 20
-1622.4879677516067
 30
0.0
 10
1501.8168189136354
 20
-1622.4879677516067
 30
0.0
 10
1498.8382615700871
 20
-1622.4879677516067
 30
0.0
 10
1498.8382615700871
 20
-1588.394477551542
 30
0.0
 10
1498.8382615700871
 20
-1554.3009873514775
 30
0.0
 10
1527.1296876802769
 20
-1554.3009873514775
 30
0.0
 10
1555.4211137904667
 20
-1554.3009873514775
 30
0.0
 10
1555.4211137904667
 20
-1588.394477551542
 30
0.0
 10
1555.4211137904667
 20
-1622.4879677516067
 30
0.0
 10
1548.3018739203312
 20
-1622.4879677516067
 30
0.0
 10
1541.1826340501959
 20
-1622.4879677516067
 30
0.0
 10
1541.1826340501959
 20
-1635.112808134907
 30
0.0
 10
1541.1826340501959
 20
-1647.7376485182072
 30
0.0
 10
1541.1826340501959
 20
-1651.692646373587
 30
0.0
 10
1543.0283639650861
 20
-1651.692646373587
 30
0.0
 10
1543.9512289225313
 20
-1651.692646373587
 30
0.0
 10
1544.8740938799765
 20
-1651.692646373587
 30
0.0
 10
1547.2471738366883
 20
-1651.692646373587
 30
0.0
 10
1549.6202537934
 20
-1651.692646373587
 30
0.0
 10
1552.2570135395372
 20
-1651.692646373587
 30
0.0
 10
1552.5206837919334
 20
-1650.2095199426603
 30
0.0
 10
1552.6525189181316
 20
-1649.4679567271971
 30
0.0
 10
1552.7843540443296
 20
-1648.7263935117339
 30
0.0
 10
1553.5753838755766
 20
-1644.2770321002274
 30
0.0
 10
1554.3664137068236
 20
-1639.8276706887209
 30
0.0
 10
1559.6399331990981
 20
-1641.0636064009475
 30
0.0
 10
1564.9134526913726
 20
-1642.2995421131741
 30
0.0
 10
1563.3313930288787
 20
-1661.0491297867852
 30
0.0
 10
1557.7942032842079
 20
-1661.0491297867852
 30
0.0
 10
1555.0256084118726
 20
-1661.0491297867852
 30
0.0
 10
1552.2570135395372
 20
-1661.0491297867852
 30
0.0
 10
1546.456144005441
 20
-1661.0491297867852
 30
0.0
 10
1540.6552744713449
 20
-1661.0491297867852
 30
0.0
 10
1529.9519998708247
 20
-1661.0491297867852
 30
0.0
 10
1529.9519998708247
 20
-1656.618078798886
 30
0.0
 10
1529.9519998708247
 20
-1654.4025533049364
 30
0.0
 10
1529.9519998708247
 20
-1652.1870278109868
 30
0.0
 10
1529.9519998708247
 20
-1637.3374977812969
 30
0.0
 10
1529.9519998708247
 20
-1622.4879677516067
 30
0.0
  0
LWPOLYLINE
  5
74
100
AcDbEntity
  8
一般
370
               9
  6
Continuous
 62
               7
100
AcDbPolyline
 90
        4
 70
             129
 10
1510.0688957494583
 20
-1613.1314843384084
 10
1544.1904796110955
 20
-1613.1314843384084
 10
1544.1904796110955
 20
-1601.7242692437273
 10
1510.0688957494583
 20
-1601.7242692437273
  0
LWPOLYLINE
  5
75
100
AcDbEntity
  8
一般
370
               9
  6
Continuous
 62
               7
100
AcDbPolyline
 90
        4
 70
             129
 10
1510.0688957494583
 20
-1592.3677858305291
 10
1544.1904796110955
 20
-1592.3677858305291
 10
1544.1904796110955
 20
-1582.9380607229014
 10
1510.0688957494583
 20
-1582.9380607229014
  0
LWPOLYLINE
  5
76
100
AcDbEntity
  8
一般
370
               9
  6
Continuous
 62
               7
100
AcDbPolyline
 90
        4
 70
             129
 10
1510.0688957494583
 20
-1573.5815773097033
 10
1544.1904796110955
 20
-1573.5815773097033
 10
1544.1904796110955
 20
-1563.6574707646757
 10
1510.0688957494583
 20
-1563.6574707646757
  0
ENDBLK
  5
77
100
AcDbEntity
  8
一般
100
AcDbBlockEnd
  0
BLOCK
  5
78
100
AcDbEntity
  8
一般
100
AcDbBlockBegin
  2
*U14
 70
               1
 10
0.0
 20
0.0
 30
0.0
  3
*U14
  1

  0
SPLINE
  5
79
100
AcDbEntity
  8
一般
370
               9
  6
Continuous
 62
               7
100
AcDbSpline
210
0.0
220
0.0
230
1.0
 70
               9
 71
               2
 72
              64
 73
              61
 74
               0
 42
0.000001
 43
0.000001
 40
0.0
 40
0.0
 40
0.0
 40
1.0
 40
1.0
 40
2.0
 40
2.0
 40
3.0
 40
3.0
 40
4.0
 40
4.0
 40
5.0
 40
5.0
 40
6.0
 40
6.0
 40
7.0
 40
7.0
 40
8.0
 40
8.0
 40
9.0
 40
9.0
 40
10.0
 40
10.0
 40
11.0
 40
11.0
 40
12.0
 40
12.0
 40
13.0
 40
13.0
 40
14.0
 40
14.0
 40
15.0
 40
15.0
 40
16.0
 40
16.0
 40
17.0
 40
17.0
 40
18.0
 40
18.0
 40
19.0
 40
19.0
 40
20.0
 40
20.0
 40
21.0
 40
21.0
 40
22.0
 40
22.0
 40
23.0
 40
23.0
 40
24.0
 40
24.0
 40
25.0
 40
25.0
 40
26.0
 40
26.0
 40
27.0
 40
27.0
 40
28.0
 40
28.0
 40
29.0
 40
29.0
 40
30.0
 40
30.0
 40
30.0
 10
2089.0120874770437
 20
926.96069786523469
 30
0.0
 10
2089.0120874770437
 20
921.98248378727499
 30
0.0
 10
2089.0120874770437
 20
917.00426970931539
 30
0.0
 10
2075.2498121750323
 20
917.00426970931539
 30
0.0
 10
2061.4875368730204
 20
917.00426970931539
 30
0.0
 10
2059.739948615962
 20
907.07706830597544
 30
0.0
 10
2057.9923603589032
 20
897.14986690263538
 30
0.0
 10
2070.4439373570508
 20
897.14986690263538
 30
0.0
 10
2082.8955143551984
 20
897.14986690263538
 30
0.0
 10
2082.8955143551984
 20
855.35624814705466
 30
0.0
 10
2082.8955143551984
 20
813.56262939147382
 30
0.0
 10
2082.8955143551984
 20
804.77525231088202
 30
0.0
 10
2080.055679881943
 20
804.77525231088202
 30
0.0
 10
2078.6357626453155
 20
804.77525231088202
 30
0.0
 10
2077.2158454086875
 20
804.77525231088202
 30
0.0
 10
2074.3760180465028
 20
804.77525231088202
 30
0.0
 10
2071.5361906843182
 20
804.77525231088202
 30
0.0
 10
2070.6623894447184
 20
809.75346638884162
 30
0.0
 10
2069.7885882051187
 20
814.73168046680121
 30
0.0
 10
2072.6284226783737
 20
814.73168046680121
 30
0.0
 10
2075.4682571516291
 20
814.73168046680121
 30
0.0
 10
2076.3857416976916
 20
814.73168046680121
 30
0.0
 10
2076.3857416976916
 20
815.60847353025542
 30
0.0
 10
2076.3857416976916
 20
816.04687006198242
 30
0.0
 10
2076.3857416976916
 20
816.4852665937093
 30
0.0
 10
2076.3857416976916
 20
852.46284721131508
 30
0.0
 10
2076.3857416976916
 20
888.44042782892086
 30
0.0
 10
2071.9949258462789
 20
888.44042782892086
 30
0.0
 10
2067.6041099948661
 20
888.44042782892086
 30
0.0
 10
2067.6041099948661
 20
849.2479519972062
 30
0.0
 10
2067.6041099948661
 20
810.05547616549165
 30
0.0
 10
2064.3492236661132
 20
810.05547616549165
 30
0.0
 10
2061.0943373373598
 20
810.05547616549165
 30
0.0
 10
2061.0943373373598
 20
849.2479519972062
 30
0.0
 10
2061.0943373373598
 20
888.44042782892086
 30
0.0
 10
2057.3588635268088
 20
888.44042782892086
 30
0.0
 10
2053.6233897162574
 20
888.44042782892086
 30
0.0
 10
2053.6233897162574
 20
848.66342645954251
 30
0.0
 10
2053.6233897162574
 20
808.88642509016415
 30
0.0
 10
2050.3685033875045
 20
808.88642509016415
 30
0.0
 10
2047.1136170587511
 20
808.88642509016415
 30
0.0
 10
2047.1136170587511
 20
848.66342645954251
 30
0.0
 10
2047.1136170587511
 20
888.44042782892086
 30
0.0
 10
2043.3781432481996
 20
888.44042782892086
 30
0.0
 10
2039.6426694376485
 20
888.44042782892086
 30
0.0
 10
2039.6426694376485
 20
847.49437538421512
 30
0.0
 10
2039.6426694376485
 20
806.54832293950949
 30
0.0
 10
2036.3877831088953
 20
806.54832293950949
 30
0.0
 10
2033.1328967801423
 20
806.54832293950949
 30
0.0
 10
2033.1328967801423
 20
851.84909492107249
 30
0.0
 10
2033.1328967801423
 20
897.14986690263538
 30
0.0
 10
2042.5043491196705
 20
897.14986690263538
 30
0.0
 10
2051.8758014591986
 20
897.14986690263538
 30
0.0
 10
2053.1864926519925
 20
907.07706830597544
 30
0.0
 10
2054.4971838447864
 20
917.00426970931539
 30
0.0
 10
2041.3902576947069
 20
917.00426970931539
 30
0.0
 10
2028.2833315446273
 20
917.00426970931539
 30
0.0
 10
2028.2833315446273
 20
921.98248378727499
 30
0.0
 10
2028.2833315446273
 20
926.96069786523469
 30
0.0
 10
2058.6477095108357
 20
926.96069786523469
 30
0.0
 10
2089.0120874770437
 20
926.96069786523469
 30
0.0
  0
SPLINE
  5
7A
100
AcDbEntity
  8
一般
370
               9
  6
Continuous
 62
               7
100
AcDbSpline
210
0.0
220
0.0
230
1.0
 70
               9
 71
               2
 72
              44
 73
              41
 74
               0
 42
0.000001
 43
0.000001
 40
0.0
 40
0.0
 40
0.0
 40
1.0
 40
1.0
 40
2.0
 40
2.0
 40
3.0
 40
3.0
 40
4.0
 40
4.0
 40
5.0
 40
5.0
 40
6.0
 40
6.0
 40
7.0
 40
7.0
 40
8.0
 40
8.0
 40
9.0
 40
9.0
 40
10.0
 40
10.0
 40
11.0
 40
11.0
 40
12.0
 40
12.0
 40
13.0
 40
13.0
 40
14.0
 40
14.0
 40
15.0
 40
15.0
 40
16.0
 40
16.0
 40
17.0
 40
17.0
 40
18.0
 40
18.0
 40
19.0
 40
19.0
 40
20.0
 40
20.0
 40
20.0
 10
2116.9735280342616
 20
931.63692119437792
 30
0.0
 10
2118.2842121159847
 20
930.46787011905064
 30
0.0
 10
2116.9735209231908
 20
929.29880952980636
 30
0.0
 10
2116.3181753267936
 20
928.71427923518422
 30
0.0
 10
2115.6628297303969
 20
928.12974894056219
 30
0.0
 10
2115.6628297303969
 20
913.51660098505272
 30
0.0
 10
2115.6628297303969
 20
898.90345302954313
 30
0.0
 10
2122.2162928054368
 20
898.90345302954313
 30
0.0
 10
2128.7697558804766
 20
898.90345302954313
 30
0.0
 10
2128.7697558804766
 20
893.92523895158365
 30
0.0
 10
2128.7697558804766
 20
888.94702487362406
 30
0.0
 10
2122.2162928054368
 20
888.94702487362406
 30
0.0
 10
2115.6628297303969
 20
888.94702487362406
 30
0.0
 10
2115.6628297303969
 20
851.54709465833912
 30
0.0
 10
2115.6628297303969
 20
814.14716444305429
 30
0.0
 10
2115.6628297303969
 20
804.77525231088202
 30
0.0
 10
2112.8229952571419
 20
804.77525231088202
 30
0.0
 10
2111.4030780205139
 20
804.77525231088202
 30
0.0
 10
2109.9831607838864
 20
804.77525231088202
 30
0.0
 10
2104.7403960127112
 20
804.77525231088202
 30
0.0
 10
2099.4976312415356
 20
804.77525231088202
 30
0.0
 10
2098.6238300019359
 20
809.75346638884162
 30
0.0
 10
2097.7500287623361
 20
814.73168046680121
 30
0.0
 10
2102.7743556679852
 20
814.73168046680121
 30
0.0
 10
2107.7986825736339
 20
814.73168046680121
 30
0.0
 10
2109.153057072891
 20
814.73168046680121
 30
0.0
 10
2109.153057072891
 20
815.90074105604549
 30
0.0
 10
2109.153057072891
 20
816.48527135066763
 30
0.0
 10
2109.153057072891
 20
817.06980164528977
 30
0.0
 10
2109.153057072891
 20
853.00841325945692
 30
0.0
 10
2109.153057072891
 20
888.94702487362406
 30
0.0
 10
2097.5534289945062
 20
888.94702487362406
 30
0.0
 10
2085.9538009161211
 20
888.94702487362406
 30
0.0
 10
2085.9538009161211
 20
893.92523895158365
 30
0.0
 10
2085.9538009161211
 20
898.90345302954313
 30
0.0
 10
2097.5534289945062
 20
898.90345302954313
 30
0.0
 10
2109.153057072891
 20
898.90345302954313
 30
0.0
 10
2109.153057072891
 20
915.85471264962428
 30
0.0
 10
2109.153057072891
 20
932.80597226970542
 30
0.0
 10
2113.0632925535765
 20
932.22144673204161
 30
0.0
 10
2116.9735280342616
 20
931.63692119437792
 30
0.0
  0
SPLINE
  5
7B
100
AcDbEntity
  8
一般
370
               9
  6
Continuous
 62
               7
100
AcDbSpline
210
0.0
220
0.0
230
1.0
 70
               9
 71
               2
 72
              16
 73
              13
 74
               0
 42
0.000001
 43
0.000001
 40
0.0
 40
0.0
 40
0.0
 40
1.0
 40
1.0
 40
2.0
 40
2.0
 40
3.0
 40
3.0
 40
4.0
 40
4.0
 40
5.0
 40
5.0
 40
6.0
 40
6.0
 40
6.0
 10
2093.8179622950252
 20
876.10692851890803
 30
0.0
 10
2098.6238228908651
 20
863.24736669030676
 30
0.0
 10
2100.3714182589947
 20
854.77173212330774
 30
0.0
 10
2101.2452159430591
 20
850.53391483980818
 30
0.0
 10
2102.1190136271234
 20
846.29609755630872
 30
0.0
 10
2099.0607270662003
 20
844.54252094331753
 30
0.0
 10
2096.0024405052777
 20
842.78894433032633
 30
0.0
 10
2092.9441681664957
 20
859.15567841274401
 30
0.0
 10
2090.5412307575052
 20
865.87772685283494
 30
0.0
 10
2089.33976205301
 20
869.2387510728804
 30
0.0
 10
2088.1382933485147
 20
872.59977529292598
 30
0.0
 10
2090.9781278217697
 20
874.35335190591695
 30
0.0
 10
2093.8179622950252
 20
876.10692851890803
 30
0.0
  0
SPLINE
  5
7C
100
AcDbEntity
  8
一般
370
               9
  6
Continuous
 62
               7
100
AcDbSpline
210
0.0
220
0.0
230
1.0
 70
               9
 71
               2
 72
              72
 73
              69
 74
               0
 42
0.000001
 43
0.000001
 40
0.0
 40
0.0
 40
0.0
 40
1.0
 40
1.0
 40
2.0
 40
2.0
 40
3.0
 40
3.0
 40
4.0
 40
4.0
 40
5.0
 40
5.0
 40
6.0
 40
6.0
 40
7.0
 40
7.0
 40
8.0
 40
8.0
 40
9.0
 40
9.0
 40
10.0
 40
10.0
 40
11.0
 40
11.0
 40
12.0
 40
12.0
 40
13.0
 40
13.0
 40
14.0
 40
14.0
 40
15.0
 40
15.0
 40
16.0
 40
16.0
 40
17.0
 40
17.0
 40
18.0
 40
18.0
 40
19.0
 40
19.0
 40
20.0
 40
20.0
 40
21.0
 40
21.0
 40
22.0
 40
22.0
 40
23.0
 40
23.0
 40
24.0
 40
24.0
 40
25.0
 40
25.0
 40
26.0
 40
26.0
 40
27.0
 40
27.0
 40
28.0
 40
28.0
 40
29.0
 40
29.0
 40
30.0
 40
30.0
 40
31.0
 40
31.0
 40
32.0
 40
32.0
 40
33.0
 40
33.0
 40
34.0
 40
34.0
 40
34.0
 10
2195.1905107960288
 20
931.63692119437792
 30
0.0
 10
2196.5011948777524
 20
930.46787011905064
 30
0.0
 10
2195.1905036849585
 20
929.29880952980636
 30
0.0
 10
2194.5351580885617
 20
928.71427923518422
 30
0.0
 10
2193.8798124921645
 20
928.12974894056219
 30
0.0
 10
2193.8798124921645
 20
913.51660098505272
 30
0.0
 10
2193.8798124921645
 20
898.90345302954313
 30
0.0
 10
2212.884852565352
 20
898.90345302954313
 30
0.0
 10
2231.8898926385391
 20
898.90345302954313
 30
0.0
 10
2231.4530026853445
 20
866.16998486470834
 30
0.0
 10
2230.5792085568155
 20
851.55683690919898
 30
0.0
 10
2230.142311492551
 20
844.25026293144424
 30
0.0
 10
2229.7054144282865
 20
836.94368895368962
 30
0.0
 10
2228.3947161244223
 20
815.90073154212871
 30
0.0
 10
2226.6471278673635
 20
813.56262939147382
 30
0.0
 10
2225.7733337388345
 20
812.39357831614643
 30
0.0
 10
2224.8995396103051
 20
811.22452724081904
 30
0.0
 10
2221.4043630961883
 20
805.35978736246273
 30
0.0
 10
2217.2538374301394
 20
805.35978736246273
 30
0.0
 10
2215.1785745971147
 20
805.35978736246273
 30
0.0
 10
2213.10331176409
 20
805.35978736246273
 30
0.0
 10
2206.9867457533146
 20
805.35978736246273
 30
0.0
 10
2200.8701797425397
 20
805.35978736246273
 30
0.0
 10
2199.5594885497458
 20
810.3380014404222
 30
0.0
 10
2198.2487973569519
 20
815.3162155183818
 30
0.0
 10
2205.6760545605212
 20
815.3162155183818
 30
0.0
 10
2213.10331176409
 20
815.3162155183818
 30
0.0
 10
2217.4722824067358
 20
815.3162155183818
 30
0.0
 10
2218.5645286229328
 20
816.77753411949936
 30
0.0
 10
2219.1106517310313
 20
817.50819342005832
 30
0.0
 10
2219.6567748391299
 20
818.23885272061727
 30
0.0
 10
2221.841253049382
 20
821.16147089501897
 30
0.0
 10
2222.2781501136469
 20
829.34483793622735
 30
0.0
 10
2222.4965986457792
 20
833.43652145683177
 30
0.0
 10
2222.7150471779114
 20
837.5282049774363
 30
0.0
 10
2224.4626354349698
 20
866.65709740769205
 30
0.0
 10
2224.4626354349698
 20
877.802061140658
 30
0.0
 10
2224.4626354349698
 20
883.37454300714103
 30
0.0
 10
2224.4626354349698
 20
888.94702487362406
 30
0.0
 10
2209.1712239635672
 20
888.94702487362406
 30
0.0
 10
2193.8798124921645
 20
888.94702487362406
 30
0.0
 10
2191.695334281912
 20
857.53848379787132
 30
0.0
 10
2187.5448086158631
 20
848.11786992531756
 30
0.0
 10
2185.4695457828384
 20
843.40756298904057
 30
0.0
 10
2183.3942829498137
 20
838.69725605276369
 30
0.0
 10
2173.345629138516
 20
815.3162155183818
 30
0.0
 10
2162.2047433331627
 20
810.34774369128183
 30
0.0
 10
2156.6343004304858
 20
807.86350777773191
 30
0.0
 10
2151.063857527809
 20
805.37927186418199
 30
0.0
 10
2148.8793722064856
 20
810.05547616549165
 30
0.0
 10
2146.6948868851628
 20
814.73168046680121
 30
0.0
 10
2168.5397543205345
 20
823.49957304567351
 30
0.0
 10
2173.1271841619191
 20
834.02105175145402
 30
0.0
 10
2175.420899082611
 20
839.28179110434417
 30
0.0
 10
2177.7146140033033
 20
844.54253045723442
 30
0.0
 10
2184.777784394093
 20
861.04563702385383
 30
0.0
 10
2185.6078881050885
 20
874.99633094873889
 30
0.0
 10
2186.0229399605864
 20
881.97167791118147
 30
0.0
 10
2186.4379918160844
 20
888.94702487362406
 30
0.0
 10
2169.406273823879
 20
888.94702487362406
 30
0.0
 10
2152.3745558316732
 20
888.94702487362406
 30
0.0
 10
2152.3745558316732
 20
893.92523895158365
 30
0.0
 10
2152.3745558316732
 20
898.90345302954313
 30
0.0
 10
2169.406273823879
 20
898.90345302954313
 30
0.0
 10
2186.4379918160844
 20
898.90345302954313
 30
0.0
 10
2186.4379918160844
 20
915.85471264962428
 30
0.0
 10
2186.4379918160844
 20
932.80597226970542
 30
0.0
 10
2190.8142513060566
 20
932.22144673204161
 30
0.0
 10
2195.1905107960288
 20
931.63692119437792
 30
0.0
  0
SPLINE
  5
7D
100
AcDbEntity
  8
一般
370
               9
  6
Continuous
 62
               7
100
AcDbSpline
210
0.0
220
0.0
230
1.0
 70
               9
 71
               2
 72
              40
 73
              37
 74
               0
 42
0.000001
 43
0.000001
 40
0.0
 40
0.0
 40
0.0
 40
1.0
 40
1.0
 40
2.0
 40
2.0
 40
3.0
 40
3.0
 40
4.0
 40
4.0
 40
5.0
 40
5.0
 40
6.0
 40
6.0
 40
7.0
 40
7.0
 40
8.0
 40
8.0
 40
9.0
 40
9.0
 40
10.0
 40
10.0
 40
11.0
 40
11.0
 40
12.0
 40
12.0
 40
13.0
 40
13.0
 40
14.0
 40
14.0
 40
15.0
 40
15.0
 40
16.0
 40
16.0
 40
17.0
 40
17.0
 40
18.0
 40
18.0
 40
18.0
 10
2306.1748089329958
 20
852.14135293294567
 30
0.0
 10
2307.4854930147189
 20
850.97230185761828
 30
0.0
 10
2306.174801821925
 20
849.803250782291
 30
0.0
 10
2305.5194562255283
 20
849.21872524462719
 30
0.0
 10
2304.8641106291311
 20
848.6341997069635
 30
0.0
 10
2304.8641106291311
 20
844.83477895519104
 30
0.0
 10
2304.8641106291311
 20
841.0353582034187
 30
0.0
 10
2321.6846653809953
 20
841.0353582034187
 30
0.0
 10
2338.505220132859
 20
841.0353582034187
 30
0.0
 10
2338.505220132859
 20
836.68063866656144
 30
0.0
 10
2338.505220132859
 20
832.32591912970418
 30
0.0
 10
2321.6846653809953
 20
832.32591912970418
 30
0.0
 10
2304.8641106291311
 20
832.32591912970418
 30
0.0
 10
2304.8641106291311
 20
823.82106732404304
 30
0.0
 10
2304.8641106291311
 20
815.3162155183818
 30
0.0
 10
2327.3643343275057
 20
815.3162155183818
 30
0.0
 10
2349.8645580258803
 20
815.3162155183818
 30
0.0
 10
2349.8645580258803
 20
810.96149598152465
 30
0.0
 10
2349.8645580258803
 20
806.6067764446675
 30
0.0
 10
2301.8058311792788
 20
806.6067764446675
 30
0.0
 10
2253.7471043326773
 20
806.6067764446675
 30
0.0
 10
2253.7471043326773
 20
810.96149598152465
 30
0.0
 10
2253.7471043326773
 20
815.3162155183818
 30
0.0
 10
2276.0507211521513
 20
815.3162155183818
 30
0.0
 10
2298.3543379716252
 20
815.3162155183818
 30
0.0
 10
2298.3543379716252
 20
823.82106732404304
 30
0.0
 10
2298.3543379716252
 20
832.32591912970418
 30
0.0
 10
2281.2934930343972
 20
832.32591912970418
 30
0.0
 10
2264.2326480971692
 20
832.32591912970418
 30
0.0
 10
2264.2326480971692
 20
836.68063866656144
 30
0.0
 10
2264.2326480971692
 20
841.0353582034187
 30
0.0
 10
2281.2934930343972
 20
841.0353582034187
 30
0.0
 10
2298.3543379716252
 20
841.0353582034187
 30
0.0
 10
2298.3543379716252
 20
847.17288110584593
 30
0.0
 10
2298.3543379716252
 20
853.31040400827317
 30
0.0
 10
2302.2645734523103
 20
852.72587847060936
 30
0.0
 10
2306.1748089329958
 20
852.14135293294567
 30
0.0
  0
SPLINE
  5
7E
100
AcDbEntity
  8
一般
370
               9
  6
Continuous
 62
               7
100
AcDbSpline
210
0.0
220
0.0
230
1.0
 70
               9
 71
               2
 72
              64
 73
              61
 74
               0
 42
0.000001
 43
0.000001
 40
0.0
 40
0.0
 40
0.0
 40
1.0
 40
1.0
 40
2.0
 40
2.0
 40
3.0
 40
3.0
 40
4.0
 40
4.0
 40
5.0
 40
5.0
 40
6.0
 40
6.0
 40
7.0
 40
7.0
 40
8.0
 40
8.0
 40
9.0
 40
9.0
 40
10.0
 40
10.0
 40
11.0
 40
11.0
 40
12.0
 40
12.0
 40
13.0
 40
13.0
 40
14.0
 40
14.0
 40
15.0
 40
15.0
 40
16.0
 40
16.0
 40
17.0
 40
17.0
 40
18.0
 40
18.0
 40
19.0
 40
19.0
 40
20.0
 40
20.0
 40
21.0
 40
21.0
 40
22.0
 40
22.0
 40
23.0
 40
23.0
 40
24.0
 40
24.0
 40
25.0
 40
25.0
 40
26.0
 40
26.0
 40
27.0
 40
27.0
 40
28.0
 40
28.0
 40
29.0
 40
29.0
 40
30.0
 40
30.0
 40
30.0
 10
2329.7672646254259
 20
936.31312549568781
 30
0.0
 10
2331.0779629292902
 20
935.14407442036031
 30
0.0
 10
2329.7672717364962
 20
933.97502334503281
 30
0.0
 10
2329.1119261400995
 20
933.39049780736912
 30
0.0
 10
2328.4565805437028
 20
932.80597226970542
 30
0.0
 10
2328.4565805437028
 20
926.66844936727807
 30
0.0
 10
2328.4565805437028
 20
920.53092646485084
 30
0.0
 10
2338.2867751562626
 20
920.53092646485084
 30
0.0
 10
2348.1169697688219
 20
920.53092646485084
 30
0.0
 10
2348.1169697688219
 20
916.17620692799369
 30
0.0
 10
2348.1169697688219
 20
911.82148739113643
 30
0.0
 10
2344.840238231302
 20
911.82148739113643
 30
0.0
 10
2341.5635066937821
 20
911.82148739113643
 30
0.0
 10
2338.505220132859
 20
903.3166260715584
 30
0.0
 10
2335.4469335719364
 20
894.81176475198049
 30
0.0
 10
2343.9664369917023
 20
894.81176475198049
 30
0.0
 10
2352.4859404114682
 20
894.81176475198049
 30
0.0
 10
2352.4859404114682
 20
890.45704521512323
 30
0.0
 10
2352.4859404114682
 20
886.10232567826597
 30
0.0
 10
2340.4712604775855
 20
886.10232567826597
 30
0.0
 10
2328.4565805437028
 20
886.10232567826597
 30
0.0
 10
2328.4565805437028
 20
880.52010156092342
 30
0.0
 10
2328.4565805437028
 20
874.93787744358087
 30
0.0
 10
2338.9421171971244
 20
874.93787744358087
 30
0.0
 10
2349.4276538505455
 20
874.93787744358087
 30
0.0
 10
2349.4276538505455
 20
870.58315790672361
 30
0.0
 10
2349.4276538505455
 20
866.22843836986635
 30
0.0
 10
2338.9421171971244
 20
866.22843836986635
 30
0.0
 10
2328.4565805437028
 20
866.22843836986635
 30
0.0
 10
2328.4565805437028
 20
856.55453548887783
 30
0.0
 10
2328.4565805437028
 20
846.88063260788931
 30
0.0
 10
2325.2016942149494
 20
846.88063260788931
 30
0.0
 10
2321.9468078861964
 20
846.88063260788931
 30
0.0
 10
2321.9468078861964
 20
856.55453548887783
 30
0.0
 10
2321.9468078861964
 20
866.22843836986635
 30
0.0
 10
2312.7501172168022
 20
866.22843836986635
 30
0.0
 10
2303.553426547408
 20
866.22843836986635
 30
0.0
 10
2303.553426547408
 20
870.58315790672361
 30
0.0
 10
2303.553426547408
 20
874.93787744358087
 30
0.0
 10
2312.7501172168022
 20
874.93787744358087
 30
0.0
 10
2321.9468078861964
 20
874.93787744358087
 30
0.0
 10
2321.9468078861964
 20
880.52010156092342
 30
0.0
 10
2321.9468078861964
 20
886.10232567826597
 30
0.0
 10
2311.002521848673
 20
886.10232567826597
 30
0.0
 10
2300.0582358111496
 20
886.10232567826597
 30
0.0
 10
2300.0582358111496
 20
890.45704521512323
 30
0.0
 10
2300.0582358111496
 20
894.81176475198049
 30
0.0
 10
2307.7039451023866
 20
894.81176475198049
 30
0.0
 10
2315.349654393623
 20
894.81176475198049
 30
0.0
 10
2313.1651690723002
 20
903.3166260715584
 30
0.0
 10
2310.9806837509768
 20
911.82148739113643
 30
0.0
 10
2307.2670551491924
 20
911.82148739113643
 30
0.0
 10
2303.553426547408
 20
911.82148739113643
 30
0.0
 10
2303.553426547408
 20
916.17620692799369
 30
0.0
 10
2303.553426547408
 20
920.53092646485084
 30
0.0
 10
2312.7501172168022
 20
920.53092646485084
 30
0.0
 10
2321.9468078861964
 20
920.53092646485084
 30
0.0
 10
2321.9468078861964
 20
929.00655151793308
 30
0.0
 10
2321.9468078861964
 20
937.4821765710152
 30
0.0
 10
2325.8570362558112
 20
936.89765103335151
 30
0.0
 10
2329.7672646254259
 20
936.31312549568781
 30
0.0
  0
LWPOLYLINE
  5
7F
100
AcDbEntity
  8
一般
370
               9
  6
Continuous
 62
               7
100
AcDbPolyline
 90
        4
 70
             129
 10
2321.4662132933277
 20
894.81176475198049
 10
2329.7672646254259
 20
894.81176475198049
 10
2335.4469335719364
 20
911.82148739113643
 10
2317.5341468260167
 20
911.82148739113643
  0
SPLINE
  5
80
100
AcDbEntity
  8
一般
370
               9
  6
Continuous
 62
               7
100
AcDbSpline
210
0.0
220
0.0
230
1.0
 70
               9
 71
               2
 72
              32
 73
              29
 74
               0
 42
0.000001
 43
0.000001
 40
0.0
 40
0.0
 40
0.0
 40
1.0
 40
1.0
 40
2.0
 40
2.0
 40
3.0
 40
3.0
 40
4.0
 40
4.0
 40
5.0
 40
5.0
 40
6.0
 40
6.0
 40
7.0
 40
7.0
 40
8.0
 40
8.0
 40
9.0
 40
9.0
 40
10.0
 40
10.0
 40
11.0
 40
11.0
 40
12.0
 40
12.0
 40
13.0
 40
13.0
 40
14.0
 40
14.0
 40
14.0
 10
2299.1844416826207
 20
929.29881904372314
 30
0.0
 10
2299.1844416826207
 20
914.13036278921209
 30
0.0
 10
2299.1844416826207
 20
898.96190653470114
 30
0.0
 10
2283.2376881703563
 20
898.96190653470114
 30
0.0
 10
2267.2909346580918
 20
898.96190653470114
 30
0.0
 10
2267.2909346580918
 20
893.96420795502229
 30
0.0
 10
2267.2909346580918
 20
888.96650937534343
 30
0.0
 10
2267.2909346580918
 20
876.69146357048874
 30
0.0
 10
2266.1986884418957
 20
872.59977529292598
 30
0.0
 10
2265.6525653337972
 20
870.55393115414461
 30
0.0
 10
2265.1064422256986
 20
868.50808701536323
 30
0.0
 10
2262.4850598401108
 20
858.57114336116331
 30
0.0
 10
2259.8636703434527
 20
854.77172260939074
 30
0.0
 10
2258.5529755951238
 20
852.87201223350451
 30
0.0
 10
2257.2422808467945
 20
850.97230185761828
 30
0.0
 10
2254.6208984612067
 20
853.60267153406335
 30
0.0
 10
2251.9995160756189
 20
856.23304121050853
 30
0.0
 10
2257.2422808467945
 20
863.83188271405334
 30
0.0
 10
2258.3345270629911
 20
867.63130346582602
 30
0.0
 10
2258.8806501710897
 20
869.53101384171225
 30
0.0
 10
2259.4267732791877
 20
871.43072421759848
 30
0.0
 10
2260.7811620005859
 20
877.86051464581612
 30
0.0
 10
2260.7811620005859
 20
883.70577002245318
 30
0.0
 10
2260.7811620005859
 20
886.62839771077176
 30
0.0
 10
2260.7811620005859
 20
889.55102539909035
 30
0.0
 10
2260.7811620005859
 20
909.42492222140675
 30
0.0
 10
2260.7811620005859
 20
929.29881904372314
 30
0.0
 10
2279.9828018416033
 20
929.29881904372314
 30
0.0
 10
2299.1844416826207
 20
929.29881904372314
 30
0.0
  0
LWPOLYLINE
  5
81
100
AcDbEntity
  8
一般
370
               9
  6
Continuous
 62
               7
100
AcDbPolyline
 90
        4
 70
             129
 10
2267.2909346580918
 20
907.67134560841566
 10
2292.6746690251143
 20
907.67134560841566
 10
2292.6746690251143
 20
920.58937997000885
 10
2267.2909346580918
 20
920.58937997000885
  0
LWPOLYLINE
  5
82
100
AcDbEntity
  8
一般
370
               9
  6
Continuous
 62
               7
100
AcDbPolyline
 90
        6
 70
             129
 10
2299.1844416826207
 20
886.04387217310784
 10
2299.1844416826207
 20
855.12244364033916
 10
2275.5919859901906
 20
855.12244364033916
 10
2275.5919859901906
 20
849.21873475854409
 10
2269.0822133326838
 20
849.21873475854409
 10
2269.0822133326838
 20
886.04387217310784
  0
LWPOLYLINE
  5
83
100
AcDbEntity
  8
一般
370
               9
  6
Continuous
 62
               7
100
AcDbPolyline
 90
        4
 70
             129
 10
2275.5919859901906
 20
863.83188271405334
 10
2292.6746690251143
 20
863.83188271405334
 10
2292.6746690251143
 20
877.33443309939366
 10
2275.5919859901906
 20
877.33443309939366
  0
SPLINE
  5
84
100
AcDbEntity
  8
一般
370
               9
  6
Continuous
 62
               7
100
AcDbSpline
210
0.0
220
0.0
230
1.0
 70
               9
 71
               2
 72
              82
 73
              79
 74
               0
 42
0.000001
 43
0.000001
 40
0.0
 40
0.0
 40
0.0
 40
1.0
 40
1.0
 40
2.0
 40
2.0
 40
3.0
 40
3.0
 40
4.0
 40
4.0
 40
5.0
 40
5.0
 40
6.0
 40
6.0
 40
7.0
 40
7.0
 40
8.0
 40
8.0
 40
9.0
 40
9.0
 40
10.0
 40
10.0
 40
11.0
 40
11.0
 40
12.0
 40
12.0
 40
13.0
 40
13.0
 40
14.0
 40
14.0
 40
15.0
 40
15.0
 40
16.0
 40
16.0
 40
17.0
 40
17.0
 40
18.0
 40
18.0
 40
19.0
 40
19.0
 40
20.0
 40
20.0
 40
21.0
 40
21.0
 40
22.0
 40
22.0
 40
23.0
 40
23.0
 40
24.0
 40
24.0
 40
25.0
 40
25.0
 40
26.0
 40
26.0
 40
27.0
 40
27.0
 40
28.0
 40
28.0
 40
29.0
 40
29.0
 40
30.0
 40
30.0
 40
31.0
 40
31.0
 40
32.0
 40
32.0
 40
33.0
 40
33.0
 40
34.0
 40
34.0
 40
35.0
 40
35.0
 40
36.0
 40
36.0
 40
37.0
 40
37.0
 40
38.0
 40
38.0
 40
39.0
 40
39.0
 40
39.0
 10
2409.7318498663931
 20
933.39048829345234
 30
0.0
 10
2413.663916333704
 20
931.63692119437792
 30
0.0
 10
2411.2609860357843
 20
930.76012813092404
 30
0.0
 10
2410.0595208868244
 20
930.32173159919716
 30
0.0
 10
2408.8580557378641
 20
929.88333506747017
 30
0.0
 10
2407.1104603697349
 20
925.79165630382431
 30
0.0
 10
2405.3628650016062
 20
921.69997754017834
 30
0.0
 10
2422.6203168177344
 20
921.69997754017834
 30
0.0
 10
2439.8777686338631
 20
921.69997754017834
 30
0.0
 10
2440.7515627623925
 20
922.86902861550573
 30
0.0
 10
2441.6253568909219
 20
924.03807969083311
 30
0.0
 10
2444.0282942999124
 20
921.40771001438793
 30
0.0
 10
2446.4312317089029
 20
918.77734033794286
 30
0.0
 10
2449.0526283166319
 20
915.8547031357075
 30
0.0
 10
2446.4312388199733
 20
914.9779195861704
 30
0.0
 10
2445.120544071644
 20
914.53952781140185
 30
0.0
 10
2443.8098493233151
 20
914.10113603663331
 30
0.0
 10
2434.6350038626879
 20
897.14986690263538
 30
0.0
 10
2429.1737870038446
 20
889.84329292488042
 30
0.0
 10
2426.4431785744237
 20
886.1900059360031
 30
0.0
 10
2423.7125701450022
 20
882.53671894712579
 30
0.0
 10
2417.5959970231561
 20
874.35336141983396
 30
0.0
 10
2411.4794310123812
 20
867.92357099161632
 30
0.0
 10
2408.4211480069935
 20
864.70867577750755
 30
0.0
 10
2405.3628650016062
 20
861.49378056339879
 30
0.0
 10
2429.3922319804419
 20
861.49378056339879
 30
0.0
 10
2453.4215989592776
 20
861.49378056339879
 30
0.0
 10
2453.4215989592776
 20
832.55973315033634
 30
0.0
 10
2453.4215989592776
 20
803.62568573727401
 30
0.0
 10
2450.1667126305247
 20
803.62568573727401
 30
0.0
 10
2446.9118263017717
 20
803.62568573727401
 30
0.0
 10
2446.9118263017717
 20
807.45433324162559
 30
0.0
 10
2446.9118263017717
 20
811.28298074597706
 30
0.0
 10
2424.6082094822978
 20
811.28298074597706
 30
0.0
 10
2402.3045926628242
 20
811.28298074597706
 30
0.0
 10
2402.3045926628242
 20
807.45433324162559
 30
0.0
 10
2402.3045926628242
 20
803.62568573727401
 30
0.0
 10
2399.0497063340708
 20
803.62568573727401
 30
0.0
 10
2395.7948200053179
 20
803.62568573727401
 30
0.0
 10
2395.7948200053179
 20
828.46804487277359
 30
0.0
 10
2395.7948200053179
 20
853.31040400827317
 30
0.0
 10
2390.3044762014524
 20
848.04968368321659
 30
0.0
 10
2387.1296818604401
 20
845.71157201864514
 30
0.0
 10
2385.5422846899337
 20
844.54251618635931
 30
0.0
 10
2383.9548875194278
 20
843.37346035407336
 30
0.0
 10
2378.2752185729178
 20
839.28179110434428
 30
0.0
 10
2373.9062479302715
 20
836.9436794397725
 30
0.0
 10
2371.7217626089487
 20
835.77462360748677
 30
0.0
 10
2369.5372772876253
 20
834.60556777520105
 30
0.0
 10
2368.0081340071638
 20
838.40498852697351
 30
0.0
 10
2366.4789907267022
 20
842.20440927874597
 30
0.0
 10
2378.7121227482526
 20
848.04968368321659
 30
0.0
 10
2383.7364425428314
 20
852.14136244686267
 30
0.0
 10
2386.2486024401205
 20
854.1872018286856
 30
0.0
 10
2388.7607623374097
 20
856.23304121050853
 30
0.0
 10
2399.6831960550953
 20
865.00093378938084
 30
0.0
 10
2403.6152767445474
 20
869.67714760460728
 30
0.0
 10
2405.5813170892734
 20
872.01525451222062
 30
0.0
 10
2407.5473574339994
 20
874.35336141983396
 30
0.0
 10
2399.6831960550953
 20
883.70577002245318
 30
0.0
 10
2395.3142254124491
 20
888.08971631188945
 30
0.0
 10
2393.1297400911262
 20
890.28168945660741
 30
0.0
 10
2390.9452547698029
 20
892.47366260132549
 30
0.0
 10
2383.517997566234
 20
882.53671894712579
 30
0.0
 10
2377.619876532056
 20
877.86051464581612
 30
0.0
 10
2374.6708160149669
 20
875.52241249516123
 30
0.0
 10
2371.7217554978779
 20
873.18431034450646
 30
0.0
 10
2369.9741672408195
 20
876.69146357048885
 30
0.0
 10
2368.2265789837611
 20
880.19861679647113
 30
0.0
 10
2381.7704093091756
 20
890.72007647441774
 30
0.0
 10
2385.7024828875569
 20
896.85760889076175
 30
0.0
 10
2387.6685196767476
 20
899.92637509893393
 30
0.0
 10
2389.6345564659387
 20
902.99514130710611
 30
0.0
 10
2399.2463061019012
 20
918.19280528636239
 30
0.0
 10
2401.430791423224
 20
926.96069786523469
 30
0.0
 10
2402.5230340838857
 20
931.34464415467085
 30
0.0
 10
2403.6152767445474
 20
935.728590444107
 30
0.0
 10
2406.6735633054705
 20
934.55953936877972
 30
0.0
 10
2409.7318498663931
 20
933.39048829345234
 30
0.0
  0
LWPOLYLINE
  5
85
100
AcDbEntity
  8
一般
370
               9
  6
Continuous
 62
               7
100
AcDbPolyline
 90
        4
 70
             129
 10
2402.3045926628242
 20
819.99241981969135
 10
2446.9118263017717
 20
819.99241981969135
 10
2446.9118263017717
 20
852.78434148968449
 10
2402.3045926628242
 20
852.78434148968449
  0
SPLINE
  5
86
100
AcDbEntity
  8
一般
370
               9
  6
Continuous
 62
               7
100
AcDbSpline
210
0.0
220
0.0
230
1.0
 70
               9
 71
               2
 72
              22
 73
              19
 74
               0
 42
0.000001
 43
0.000001
 40
0.0
 40
0.0
 40
0.0
 40
1.0
 40
1.0
 40
2.0
 40
2.0
 40
3.0
 40
3.0
 40
4.0
 40
4.0
 40
5.0
 40
5.0
 40
6.0
 40
6.0
 40
7.0
 40
7.0
 40
8.0
 40
8.0
 40
9.0
 40
9.0
 40
9.0
 10
2402.7414826160184
 20
912.99053846646382
 30
0.0
 10
2398.8094019265659
 20
904.84613091477695
 30
0.0
 10
2396.624916605243
 20
901.58252444636992
 30
0.0
 10
2395.5326739445813
 20
899.95072121216629
 30
0.0
 10
2394.4404312839197
 20
898.31891797796266
 30
0.0
 10
2403.6152767445474
 20
889.55102539909035
 30
0.0
 10
2408.2026994748612
 20
884.87482109778034
 30
0.0
 10
2410.4964108400181
 20
882.53671894712579
 30
0.0
 10
2412.7901222051746
 20
880.19861679647113
 30
0.0
 10
2417.1591070699619
 20
884.87482109778068
 30
0.0
 10
2420.4358386074819
 20
889.55103491300702
 30
0.0
 10
2422.0742043762421
 20
891.88914182062024
 30
0.0
 10
2423.7125701450022
 20
894.22724872823346
 30
0.0
 10
2431.5767173017648
 20
904.70973940274155
 30
0.0
 10
2433.7612097341585
 20
908.85013893460268
 30
0.0
 10
2434.8534559503551
 20
910.92033870053319
 30
0.0
 10
2435.9457021665521
 20
912.99053846646382
 30
0.0
 10
2419.3435923912853
 20
912.99053846646382
 30
0.0
 10
2402.7414826160184
 20
912.99053846646382
 30
0.0
  0
ENDBLK
  5
87
100
AcDbEntity
  8
一般
100
AcDbBlockEnd
  0
BLOCK
  5
88
100
AcDbEntity
  8
一般
100
AcDbBlockBegin
  2
*U15
 70
               1
 10
0.0
 20
0.0
 30
0.0
  3
*U15
  1

  0
SPLINE
  5
89
100
AcDbEntity
  8
一般
370
               9
  6
Continuous
 62
               7
100
AcDbSpline
210
0.0
220
0.0
230
1.0
 70
               9
 71
               2
 72
              50
 73
              47
 74
               0
 42
0.000001
 43
0.000001
 40
0.0
 40
0.0
 40
0.0
 40
1.0
 40
1.0
 40
2.0
 40
2.0
 40
3.0
 40
3.0
 40
4.0
 40
4.0
 40
5.0
 40
5.0
 40
6.0
 40
6.0
 40
7.0
 40
7.0
 40
8.0
 40
8.0
 40
9.0
 40
9.0
 40
10.0
 40
10.0
 40
11.0
 40
11.0
 40
12.0
 40
12.0
 40
13.0
 40
13.0
 40
14.0
 40
14.0
 40
15.0
 40
15.0
 40
16.0
 40
16.0
 40
17.0
 40
17.0
 40
18.0
 40
18.0
 40
19.0
 40
19.0
 40
20.0
 40
20.0
 40
21.0
 40
21.0
 40
22.0
 40
22.0
 40
23.0
 40
23.0
 40
23.0
 10
2076.9971047526165
 20
262.05479744987758
 30
0.0
 10
2094.9099057206772
 20
262.05479744987758
 30
0.0
 10
2112.822706688738
 20
262.05479744987758
 30
0.0
 10
2112.822706688738
 20
255.20609974861071
 30
0.0
 10
2112.822706688738
 20
248.35740204734384
 30
0.0
 10
2094.9099057206772
 20
248.35740204734384
 30
0.0
 10
2076.9971047526165
 20
248.35740204734384
 30
0.0
 10
2076.9971047526165
 20
208.00560787724476
 30
0.0
 10
2063.2348365616754
 20
197.91279772320684
 30
0.0
 10
2056.3537024662046
 20
192.86639264618793
 30
0.0
 10
2049.4725683707338
 20
187.81998756916903
 30
0.0
 10
2045.9773847455465
 20
192.4961918704787
 30
0.0
 10
2042.4822011203592
 20
197.17239617178836
 30
0.0
 10
2066.8173939108592
 20
215.5849648790703
 30
0.0
 10
2066.5989489342619
 20
231.9711834632069
 30
0.0
 10
2066.4897264459632
 20
240.16429275527537
 30
0.0
 10
2066.380503957665
 20
248.35740204734384
 30
0.0
 10
2044.8196100141199
 20
248.35740204734384
 30
0.0
 10
2023.2587160705748
 20
248.35740204734384
 30
0.0
 10
2023.2587160705748
 20
255.20609974861071
 30
0.0
 10
2023.2587160705748
 20
262.05479744987758
 30
0.0
 10
2045.0089280456946
 20
262.05479744987758
 30
0.0
 10
2066.7591400208144
 20
262.05479744987758
 30
0.0
 10
2066.7591400208144
 20
273.16079217940484
 30
0.0
 10
2066.7591400208144
 20
284.26678690893209
 30
0.0
 10
2054.5988253618198
 20
282.51321980985767
 30
0.0
 10
2044.8268846393048
 20
281.92869427219421
 30
0.0
 10
2039.9409142780473
 20
281.63643150336236
 30
0.0
 10
2035.0549439167899
 20
281.34416873453051
 30
0.0
 10
2033.0889035720638
 20
287.48169163695769
 30
0.0
 10
2031.1228632273378
 20
293.61921453938487
 30
0.0
 10
2073.5019282384992
 20
294.78826561471237
 30
0.0
 10
2084.8612590204498
 20
299.46446991602204
 30
0.0
 10
2090.5409244114253
 20
301.80257206667682
 30
0.0
 10
2096.2205898024004
 20
304.14067421733159
 30
0.0
 10
2098.6235272113909
 20
298.00315131490424
 30
0.0
 10
2101.0264646203818
 20
291.86562841247689
 30
0.0
 10
2102.3371629242461
 20
287.77394013491426
 30
0.0
 10
2099.7157805386587
 20
289.23525873603205
 30
0.0
 10
2098.4050893458648
 20
289.96591803659089
 30
0.0
 10
2097.0943981530709
 20
290.69657733714973
 30
0.0
 10
2087.9195384703021
 20
287.77394013491426
 30
0.0
 10
2082.4583216114593
 20
286.89715658537716
 30
0.0
 10
2079.7277131820379
 20
286.4587648106085
 30
0.0
 10
2076.9971047526165
 20
286.02037303583984
 30
0.0
 10
2076.9971047526165
 20
274.03758524285871
 30
0.0
 10
2076.9971047526165
 20
262.05479744987758
 30
0.0
  0
LWPOLYLINE
  5
8A
100
AcDbEntity
  8
一般
370
               9
  6
Continuous
 62
               7
100
AcDbPolyline
 90
        4
 70
             129
 10
2131.1847276466183
 20
243.68119774603417
 10
2131.1847276466183
 20
257.37859314856792
 10
2228.6128654215449
 20
257.37859314856792
 10
2228.6128654215449
 20
243.68119774603417
  0
SPLINE
  5
8B
100
AcDbEntity
  8
一般
370
               9
  6
Continuous
 62
               7
100
AcDbSpline
210
0.0
220
0.0
230
1.0
 70
               9
 71
               2
 72
              44
 73
              41
 74
               0
 42
0.000001
 43
0.000001
 40
0.0
 40
0.0
 40
0.0
 40
1.0
 40
1.0
 40
2.0
 40
2.0
 40
3.0
 40
3.0
 40
4.0
 40
4.0
 40
5.0
 40
5.0
 40
6.0
 40
6.0
 40
7.0
 40
7.0
 40
8.0
 40
8.0
 40
9.0
 40
9.0
 40
10.0
 40
10.0
 40
11.0
 40
11.0
 40
12.0
 40
12.0
 40
13.0
 40
13.0
 40
14.0
 40
14.0
 40
15.0
 40
15.0
 40
16.0
 40
16.0
 40
17.0
 40
17.0
 40
18.0
 40
18.0
 40
19.0
 40
19.0
 40
20.0
 40
20.0
 40
20.0
 10
2243.9166140406433
 20
217.63081853176868
 30
0.0
 10
2253.0914595012709
 20
217.92307654364203
 30
0.0
 10
2262.2663049618982
 20
218.21533455551537
 30
0.0
 10
2277.9946134975653
 20
263.80838357678556
 30
0.0
 10
2282.1451462746854
 20
287.48169163695763
 30
0.0
 10
2284.220412663245
 20
299.31834566704373
 30
0.0
 10
2286.2956790518047
 20
311.15499969712982
 30
0.0
 10
2291.319998846383
 20
308.81688803255821
 30
0.0
 10
2296.3443186409613
 20
306.4787763679866
 30
0.0
 10
2300.2763993304138
 20
302.9716231420042
 30
0.0
 10
2297.8734619214229
 20
302.09483959246711
 30
0.0
 10
2296.6719932169276
 20
301.65644781769856
 30
0.0
 10
2295.4705245124323
 20
301.21805604293002
 30
0.0
 10
2287.1694731803341
 20
259.71669529922269
 30
0.0
 10
2280.1791130410297
 20
239.55054046503278
 30
0.0
 10
2276.6839329713775
 20
229.46746304793777
 30
0.0
 10
2273.1887529017254
 20
219.38438563084276
 30
0.0
 10
2295.9074215766968
 20
220.8457042319605
 30
0.0
 10
2318.6260902516688
 20
222.30702283307824
 30
0.0
 10
2309.4512447910411
 20
238.67375691549569
 30
0.0
 10
2306.8298552943825
 20
242.47317766726815
 30
0.0
 10
2305.5191605460532
 20
244.37288804315443
 30
0.0
 10
2304.2084657977243
 20
246.27259841904072
 30
0.0
 10
2308.5774435514413
 20
250.36427718268658
 30
0.0
 10
2312.9464213051579
 20
254.45595594633244
 30
0.0
 10
2327.800935712296
 20
232.82848251102496
 30
0.0
 10
2334.5728508750035
 20
218.21533455551537
 30
0.0
 10
2337.9588084563575
 20
210.90876057776069
 30
0.0
 10
2341.344766037711
 20
203.60218660000601
 30
0.0
 10
2336.5388912197295
 20
199.21824031056985
 30
0.0
 10
2331.733016401748
 20
194.8342940211337
 30
0.0
 10
2328.2378327765609
 20
202.43313552467862
 30
0.0
 10
2324.7426491513734
 20
210.03197702822354
 30
0.0
 10
2288.0432601977927
 20
206.23255627645102
 30
0.0
 10
2251.3438712442121
 20
202.43313552467851
 30
0.0
 10
2248.7224888586243
 20
196.58786112020778
 30
0.0
 10
2248.0671397066922
 20
199.51049832244325
 30
0.0
 10
2247.7394651307263
 20
200.97181692356088
 30
0.0
 10
2247.4117905547605
 20
202.43313552467851
 30
0.0
 10
2245.6642022977021
 20
210.03197702822359
 30
0.0
 10
2243.9166140406433
 20
217.63081853176868
 30
0.0
  0
SPLINE
  5
8C
100
AcDbEntity
  8
一般
370
               9
  6
Continuous
 62
               7
100
AcDbSpline
210
0.0
220
0.0
230
1.0
 70
               9
 71
               2
 72
              66
 73
              63
 74
               0
 42
0.000001
 43
0.000001
 40
0.0
 40
0.0
 40
0.0
 40
1.0
 40
1.0
 40
2.0
 40
2.0
 40
3.0
 40
3.0
 40
4.0
 40
4.0
 40
5.0
 40
5.0
 40
6.0
 40
6.0
 40
7.0
 40
7.0
 40
8.0
 40
8.0
 40
9.0
 40
9.0
 40
10.0
 40
10.0
 40
11.0
 40
11.0
 40
12.0
 40
12.0
 40
13.0
 40
13.0
 40
14.0
 40
14.0
 40
15.0
 40
15.0
 40
16.0
 40
16.0
 40
17.0
 40
17.0
 40
18.0
 40
18.0
 40
19.0
 40
19.0
 40
20.0
 40
20.0
 40
21.0
 40
21.0
 40
22.0
 40
22.0
 40
23.0
 40
23.0
 40
24.0
 40
24.0
 40
25.0
 40
25.0
 40
26.0
 40
26.0
 40
27.0
 40
27.0
 40
28.0
 40
28.0
 40
29.0
 40
29.0
 40
30.0
 40
30.0
 40
31.0
 40
31.0
 40
31.0
 10
2434.8531531598105
 20
295.95731669003987
 30
0.0
 10
2419.9986387526724
 20
267.31553680276772
 30
0.0
 10
2410.168444140113
 20
257.3785931485678
 30
0.0
 10
2405.2533468338333
 20
252.4101213214679
 30
0.0
 10
2400.3382495275532
 20
247.44164949436799
 30
0.0
 10
2420.6539879046049
 20
247.44164949436799
 30
0.0
 10
2440.9697262816562
 20
247.44164949436799
 30
0.0
 10
2440.9697262816562
 20
217.04628348018804
 30
0.0
 10
2440.9697262816562
 20
186.65091746600808
 30
0.0
 10
2436.3167679250423
 20
186.65091746600808
 30
0.0
 10
2431.6638095684284
 20
186.65091746600808
 30
0.0
 10
2431.6638095684284
 20
189.23257588815477
 30
0.0
 10
2431.6638095684284
 20
191.81423431030146
 30
0.0
 10
2412.0689559696093
 20
191.81423431030146
 30
0.0
 10
2392.4741023707902
 20
191.81423431030146
 30
0.0
 10
2392.4741023707902
 20
188.35579233861756
 30
0.0
 10
2392.4741023707902
 20
184.89735036693367
 30
0.0
 10
2387.8211440141758
 20
184.89735036693367
 30
0.0
 10
2383.1681856575619
 20
184.89735036693367
 30
0.0
 10
2383.1681856575619
 20
208.57065842710585
 30
0.0
 10
2383.1681856575619
 20
232.24396648727804
 30
0.0
 10
2370.3670782080758
 20
222.30702283307824
 30
0.0
 10
2365.0369326018335
 20
219.67665315663317
 30
0.0
 10
2362.3718597987126
 20
218.36146831841063
 30
0.0
 10
2359.7067869955913
 20
217.04628348018809
 30
0.0
 10
2357.9591987385329
 20
223.76833192027908
 30
0.0
 10
2356.2116104814741
 20
230.49038036037007
 30
0.0
 10
2376.7457938351226
 20
238.0892218639151
 30
0.0
 10
2386.3575363600148
 20
248.31843304390509
 30
0.0
 10
2391.1634076224609
 20
253.43303863390014
 30
0.0
 10
2395.969278884907
 20
258.54764422389519
 30
0.0
 10
2392.0371981954549
 20
264.39289960053225
 30
0.0
 10
2386.794426313209
 20
269.06911341575903
 30
0.0
 10
2384.1730403720858
 20
271.4072203233722
 30
0.0
 10
2381.551654430963
 20
273.74532723098537
 30
0.0
 10
2372.8137131456706
 20
262.63933250145817
 30
0.0
 10
2367.5709412634251
 20
258.8399117496856
 30
0.0
 10
2364.9495553223023
 20
256.94020137379931
 30
0.0
 10
2362.3281693811791
 20
255.04049099791303
 30
0.0
 10
2359.4883349079237
 20
259.71669529922264
 30
0.0
 10
2356.6485004346682
 20
264.39289960053225
 30
0.0
 10
2380.6778603024341
 20
280.7596336829497
 30
0.0
 10
2385.4837351204151
 20
298.58767685256794
 30
0.0
 10
2387.8866725294056
 20
307.50169843737712
 30
0.0
 10
2390.2896099383966
 20
316.41572002218629
 30
0.0
 10
2395.095484756378
 20
314.9544109349855
 30
0.0
 10
2399.901359574359
 20
313.49310184778471
 30
0.0
 10
2401.6489478314179
 20
311.15499969712982
 30
0.0
 10
2400.1198045509559
 20
310.86273217133942
 30
0.0
 10
2399.3552329107251
 20
310.71659840844433
 30
0.0
 10
2398.5906612704948
 20
310.57046464554924
 30
0.0
 10
2397.7168671419654
 20
307.94009496910417
 30
0.0
 10
2396.843073013436
 20
305.3097252926591
 30
0.0
 10
2411.4791424439773
 20
305.3097252926591
 30
0.0
 10
2426.1152118745181
 20
305.3097252926591
 30
0.0
 10
2426.552108938783
 20
306.47877636798648
 30
0.0
 10
2426.9890060030475
 20
307.64782744331387
 30
0.0
 10
2431.5764287333614
 20
303.26388115387772
 30
0.0
 10
2436.1638514636747
 20
298.87993486444157
 30
0.0
 10
2437.9114397207336
 20
296.54183271378656
 30
0.0
 10
2436.3822964402721
 20
296.24957470191316
 30
0.0
 10
2435.6177248000413
 20
296.10344569597652
 30
0.0
 10
2434.8531531598105
 20
295.95731669003987
 30
0.0
  0
LWPOLYLINE
  5
8D
100
AcDbEntity
  8
一般
370
               9
  6
Continuous
 62
               7
100
AcDbPolyline
 90
        4
 70
             129
 10
2431.6638095684284
 20
236.23823225624415
 10
2392.4741023707902
 20
236.23823225624415
 10
2392.4741023707902
 20
203.01765154842542
 10
2431.6638095684284
 20
203.01765154842542
  0
SPLINE
  5
8E
100
AcDbEntity
  8
一般
370
               9
  6
Continuous
 62
               7
100
AcDbSpline
210
0.0
220
0.0
230
1.0
 70
               9
 71
               2
 72
              16
 73
              13
 74
               0
 42
0.000001
 43
0.000001
 40
0.0
 40
0.0
 40
0.0
 40
1.0
 40
1.0
 40
2.0
 40
2.0
 40
3.0
 40
3.0
 40
4.0
 40
4.0
 40
5.0
 40
5.0
 40
6.0
 40
6.0
 40
6.0
 10
2403.3965360884758
 20
266.73100175118725
 30
0.0
 10
2413.0082857244388
 20
278.9670785526032
 30
0.0
 10
2417.3772563670846
 20
286.53669330356922
 30
0.0
 10
2419.5617416884079
 20
290.32150067905212
 30
0.0
 10
2421.7462270097308
 20
294.10630805453502
 30
0.0
 10
2407.3286096668576
 20
294.10630805453502
 30
0.0
 10
2392.9109923239844
 20
294.10630805453502
 30
0.0
 10
2389.6342607864644
 20
288.01749640640611
 30
0.0
 10
2386.357529248944
 20
281.9286847582772
 30
0.0
 10
2395.969278884907
 20
274.91437830631287
 30
0.0
 10
2399.6829074866919
 20
270.82269002875023
 30
0.0
 10
2401.5397217875839
 20
268.77684588996874
 30
0.0
 10
2403.3965360884758
 20
266.73100175118725
 30
0.0
  0
ENDBLK
  5
8F
100
AcDbEntity
  8
一般
100
AcDbBlockEnd
  0
BLOCK
  5
90
100
AcDbEntity
  8
一般
100
AcDbBlockBegin
  2
*U16
 70
               1
 10
0.0
 20
0.0
 30
0.0
  3
*U16
  1

  0
POLYLINE
  5
91
100
AcDbEntity
  8
一般
370
               9
  6
Continuous
 62
               7
100
AcDb2dPolyline
 66
               1
 10
0.0
 20
0.0
 30
0.0
 70
               1
 75
               5
  0
VERTEX
  5
92
100
AcDbEntity
  8
一般
370
               9
  6
Continuous
 62
               7
100
AcDbVertex
100
AcDb2dVertex
 10
1812.0461455838317
 20
1000.7921461990925
 30
0.0
  0
VERTEX
  5
93
100
AcDbEntity
  8
一般
370
               9
  6
Continuous
 62
               7
100
AcDbVertex
100
AcDb2dVertex
 10
2699.3427654792772
 20
1000.7921461990925
 30
0.0
  0
VERTEX
  5
94
100
AcDbEntity
  8
一般
370
               9
  6
Continuous
 62
               7
100
AcDbVertex
100
AcDb2dVertex
 10
2699.3427654792772
 20
-340.0
 30
0.0
  0
VERTEX
  5
95
100
AcDbEntity
  8
一般
370
               9
  6
Continuous
 62
               7
100
AcDbVertex
100
AcDb2dVertex
 10
1812.0461455838317
 20
-340.0
 30
0.0
  0
SEQEND
  5
96
100
AcDbEntity
  8
一般
370
               9
  6
Continuous
 62
               7
  0
LINE
  5
97
100
AcDbEntity
  8
一般
370
               9
  6
Continuous
 62
               7
100
AcDbLine
 10
1812.0461455838317
 20
777.32678849924378
 30
0.0
 11
2699.3427654792772
 21
777.32678849924378
 31
0.0
  0
LINE
  5
98
100
AcDbEntity
  8
一般
370
               9
  6
Continuous
 62
               7
100
AcDbLine
 10
1812.0461455838317
 20
351.67848811857948
 30
0.0
 11
2699.3427654792772
 21
351.67848811857948
 31
0.0
  0
LINE
  5
99
100
AcDbEntity
  8
一般
370
               9
  6
Continuous
 62
               7
100
AcDbLine
 10
1812.0461455838317
 20
362.31969562809616
 30
0.0
 11
2699.3427654792772
 21
362.31969562809616
 31
0.0
  0
LINE
  5
9A
100
AcDbEntity
  8
一般
370
               9
  6
Continuous
 62
               7
100
AcDbLine
 10
1812.0461455838317
 20
128.21313041873077
 30
0.0
 11
2699.3427654792772
 21
128.21313041873077
 31
0.0
  0
INSERT
  5
9B
100
AcDbEntity
  8
一般
 62
               7
100
AcDbBlockReference
  2
*U14
 10
0.0
 20
0.0
 30
0.0
  0
INSERT
  5
9C
100
AcDbEntity
  8
一般
 62
               7
100
AcDbBlockReference
  2
*U15
 10
0.0
 20
0.0
 30
0.0
  0
ENDBLK
  5
9D
100
AcDbEntity
  8
一般
100
AcDbBlockEnd
  0
BLOCK
  5
9E
100
AcDbEntity
  8
一般
100
AcDbBlockBegin
  2
*U17
 70
               1
 10
0.0
 20
0.0
 30
0.0
  3
*U17
  1

  0
LINE
  5
9F
100
AcDbEntity
  8
一般
370
               5
  6
Continuous
 62
               7
100
AcDbLine
 10
-2560.0
 20
1380.0
 30
0.0
 11
-2560.0
 21
1590.0
 31
0.0
  0
LINE
  5
A0
100
AcDbEntity
  8
一般
370
               5
  6
Continuous
 62
               7
100
AcDbLine
 10
970.0
 20
1380.0
 30
0.0
 11
-2560.0
 21
1380.0
 31
0.0
  0
LINE
  5
A1
100
AcDbEntity
  8
一般
370
               5
  6
Continuous
 62
               7
100
AcDbLine
 10
970.0
 20
1590.0
 30
0.0
 11
970.0
 21
1380.0
 31
0.0
  0
LINE
  5
A2
100
AcDbEntity
  8
一般
370
               5
  6
Continuous
 62
               7
100
AcDbLine
 10
-2560.0
 20
1590.0
 30
0.0
 11
970.0
 21
1590.0
 31
0.0
  0
ENDBLK
  5
A3
100
AcDbEntity
  8
一般
100
AcDbBlockEnd
  0
BLOCK
  5
A4
100
AcDbEntity
  8
寸法
100
AcDbBlockBegin
  2
*U18
 70
               1
 10
0.0
 20
0.0
 30
0.0
  3
*U18
  1

  0
MTEXT
  5
A5
100
AcDbEntity
  8
寸法
 62
               7
100
AcDbMText
 10
-2423.5
 20
1936.4666666666667
 30
0.0
 40
67.733333333333334
 41
0.0
 71
               1
 72
               1
  1
400
  7
ＭＳ ゴシック
 73
               1
 44
1.0
  0
ENDBLK
  5
A6
100
AcDbEntity
  8
寸法
100
AcDbBlockEnd
  0
BLOCK
  5
A7
100
AcDbEntity
  8
寸法
100
AcDbBlockBegin
  2
*U19
 70
               1
 10
0.0
 20
0.0
 30
0.0
  3
*U19
  1

  0
MTEXT
  5
A8
100
AcDbEntity
  8
寸法
 62
               7
100
AcDbMText
 10
-2423.5
 20
-1660.3333333333333
 30
0.0
 40
67.733333333333334
 41
0.0
 71
               1
 72
               1
  1
400
  7
ＭＳ ゴシック
 73
               1
 44
1.0
  0
ENDBLK
  5
A9
100
AcDbEntity
  8
寸法
100
AcDbBlockEnd
  0
BLOCK
  5
AA
100
AcDbEntity
  8
寸法
100
AcDbBlockBegin
  2
*U20
 70
               1
 10
0.0
 20
0.0
 30
0.0
  3
*U20
  1

  0
MTEXT
  5
AB
100
AcDbEntity
  8
寸法
 62
               7
100
AcDbMText
 10
-2497.0
 20
-1500.3333333333333
 30
0.0
 40
67.733333333333334
 41
0.0
 71
               1
 72
               1
  1
150
  7
ＭＳ ゴシック
 73
               1
 44
1.0
  0
ENDBLK
  5
AC
100
AcDbEntity
  8
寸法
100
AcDbBlockEnd
  0
BLOCK
  5
AD
100
AcDbEntity
  8
一般
100
AcDbBlockBegin
  2
*U21
 70
               1
 10
0.0
 20
0.0
 30
0.0
  3
*U21
  1

  0
SPLINE
  5
AE
100
AcDbEntity
  8
一般
370
               9
  6
Continuous
 62
               7
100
AcDbSpline
210
0.0
220
0.0
230
1.0
 70
               9
 71
               2
 72
              52
 73
              49
 74
               0
 42
0.000001
 43
0.000001
 40
0.0
 40
0.0
 40
0.0
 40
1.0
 40
1.0
 40
2.0
 40
2.0
 40
3.0
 40
3.0
 40
4.0
 40
4.0
 40
5.0
 40
5.0
 40
6.0
 40
6.0
 40
7.0
 40
7.0
 40
8.0
 40
8.0
 40
9.0
 40
9.0
 40
10.0
 40
10.0
 40
11.0
 40
11.0
 40
12.0
 40
12.0
 40
13.0
 40
13.0
 40
14.0
 40
14.0
 40
15.0
 40
15.0
 40
16.0
 40
16.0
 40
17.0
 40
17.0
 40
18.0
 40
18.0
 40
19.0
 40
19.0
 40
20.0
 40
20.0
 40
21.0
 40
21.0
 40
22.0
 40
22.0
 40
23.0
 40
23.0
 40
24.0
 40
24.0
 40
24.0
 10
1910.1068551794119
 20
-1555.4136650195921
 30
0.0
 10
1944.5936271438391
 20
-1537.3047667780165
 30
0.0
 10
1950.8204039714785
 20
-1520.6212677001645
 30
0.0
 10
1953.9337923852981
 20
-1512.2795181612382
 30
0.0
 10
1957.047180799118
 20
-1503.9377686223122
 30
0.0
 10
1935.9719341527325
 20
-1503.9377686223122
 30
0.0
 10
1914.8966875063468
 20
-1503.9377686223122
 30
0.0
 10
1914.8966875063468
 20
-1498.20925963837
 30
0.0
 10
1914.8966875063468
 20
-1492.4807506544278
 30
0.0
 10
1936.6194492286713
 20
-1492.4807506544278
 30
0.0
 10
1958.3422109509961
 20
-1492.4807506544278
 30
0.0
 10
1958.3422109509961
 20
-1481.5885151391176
 30
0.0
 10
1958.3422109509961
 20
-1470.6962796238076
 30
0.0
 10
1963.2029961211974
 20
-1470.6962796238076
 30
0.0
 10
1968.0637812913988
 20
-1470.6962796238076
 30
0.0
 10
1971.8956506178642
 20
-1471.1803863730063
 30
0.0
 10
1970.2192110358956
 20
-1472.3906357363544
 30
0.0
 10
1969.3809912449112
 20
-1472.9957604180286
 30
0.0
 10
1968.5427714539269
 20
-1473.6008850997027
 30
0.0
 10
1968.5427714539269
 20
-1483.0408178770654
 30
0.0
 10
1968.5427714539269
 20
-1492.4807506544278
 30
0.0
 10
1991.2944576822811
 20
-1492.4807506544278
 30
0.0
 10
2014.0461439106352
 20
-1492.4807506544278
 30
0.0
 10
2014.0461439106352
 20
-1498.20925963837
 30
0.0
 10
2014.0461439106352
 20
-1503.9377686223122
 30
0.0
 10
1992.2524206827509
 20
-1503.9377686223122
 30
0.0
 10
1970.4586974548665
 20
-1503.9377686223122
 30
0.0
 10
1980.9963251092058
 20
-1533.9519318217708
 30
0.0
 10
1999.9161420110947
 20
-1543.7146024319327
 30
0.0
 10
2009.3760504620391
 20
-1548.5959377370136
 30
0.0
 10
2018.8359589129836
 20
-1553.4772730420943
 30
0.0
 10
2016.2015563305454
 20
-1559.0444131096369
 30
0.0
 10
2013.5671537481071
 20
-1564.6115531771795
 30
0.0
 10
1984.349204273143
 20
-1548.6362755887014
 30
0.0
 10
1976.4459878635348
 20
-1534.3553453579457
 30
0.0
 10
1972.4943796587308
 20
-1527.2148802425679
 30
0.0
 10
1968.5427714539269
 20
-1520.0744151271902
 30
0.0
 10
1968.5427714539269
 20
-1549.3624269576751
 30
0.0
 10
1968.5427714539269
 20
-1578.65043878816
 30
0.0
 10
1963.4424912024615
 20
-1578.65043878816
 30
0.0
 10
1958.3422109509961
 20
-1578.65043878816
 30
0.0
 10
1958.3422109509961
 20
-1550.088578326649
 30
0.0
 10
1958.3422109509961
 20
-1521.5267178651377
 30
0.0
 10
1944.646848273009
 20
-1547.1839728507537
 30
0.0
 10
1930.4902444711768
 20
-1556.6239143829405
 30
0.0
 10
1923.4119425702606
 20
-1561.3438851490337
 30
0.0
 10
1916.3336406693447
 20
-1566.0638559151271
 30
0.0
 10
1913.2202479243783
 20
-1560.7387604673595
 30
0.0
 10
1910.1068551794119
 20
-1555.4136650195921
 30
0.0
  0
SPLINE
  5
AF
100
AcDbEntity
  8
一般
370
               9
  6
Continuous
 62
               7
100
AcDbSpline
210
0.0
220
0.0
230
1.0
 70
               9
 71
               2
 72
              38
 73
              35
 74
               0
 42
0.000001
 43
0.000001
 40
0.0
 40
0.0
 40
0.0
 40
1.0
 40
1.0
 40
2.0
 40
2.0
 40
3.0
 40
3.0
 40
4.0
 40
4.0
 40
5.0
 40
5.0
 40
6.0
 40
6.0
 40
7.0
 40
7.0
 40
8.0
 40
8.0
 40
9.0
 40
9.0
 40
10.0
 40
10.0
 40
11.0
 40
11.0
 40
12.0
 40
12.0
 40
13.0
 40
13.0
 40
14.0
 40
14.0
 40
15.0
 40
15.0
 40
16.0
 40
16.0
 40
17.0
 40
17.0
 40
17.0
 10
2034.1849471803864
 20
-1526.3318555593307
 30
0.0
 10
2034.1849471803864
 20
-1521.750841360137
 30
0.0
 10
2034.1849471803864
 20
-1517.1698271609432
 30
0.0
 10
2046.6385008356651
 20
-1517.1698271609432
 30
0.0
 10
2059.0920544909441
 20
-1517.1698271609432
 30
0.0
 10
2059.0920544909441
 20
-1537.7440488282152
 30
0.0
 10
2059.0920544909441
 20
-1558.3182704954872
 30
0.0
 10
2068.6717191448133
 20
-1567.5161586530746
 30
0.0
 10
2075.6169638916585
 20
-1567.5161586530746
 30
0.0
 10
2079.0895862650814
 20
-1567.5161586530746
 30
0.0
 10
2082.5622086385038
 20
-1567.5161586530746
 30
0.0
 10
2112.0196531947322
 20
-1567.5161586530746
 30
0.0
 10
2141.4770977509602
 20
-1567.5161586530746
 30
0.0
 10
2140.5191347504906
 20
-1572.0971728522684
 30
0.0
 10
2139.561171750021
 20
-1576.6781870514621
 30
0.0
 10
2112.0196618570253
 20
-1576.6781870514621
 30
0.0
 10
2084.4781519640296
 20
-1576.6781870514621
 30
0.0
 10
2063.4028966553506
 20
-1576.6781870514621
 30
0.0
 10
2058.1340828281809
 20
-1570.6448701143208
 30
0.0
 10
2055.4996759145961
 20
-1567.6282116457501
 30
0.0
 10
2052.8652690010113
 20
-1564.6115531771795
 30
0.0
 10
2045.2015476726674
 20
-1573.8094413347671
 30
0.0
 10
2040.6512104269966
 20
-1575.9878866868642
 30
0.0
 10
2038.3760418041611
 20
-1577.0771093629128
 30
0.0
 10
2036.1008731813258
 20
-1578.1663320389614
 30
0.0
 10
2033.7059570178585
 20
-1572.841245346018
 30
0.0
 10
2031.311040854391
 20
-1567.5161586530746
 30
0.0
 10
2039.6311561091622
 20
-1565.5797491659287
 30
0.0
 10
2044.2613250485877
 20
-1561.7069564561086
 30
0.0
 10
2046.5764095183004
 20
-1559.7705601011985
 30
0.0
 10
2048.8914939880133
 20
-1557.8341637462886
 30
0.0
 10
2048.8914939880133
 20
-1542.0830096528098
 30
0.0
 10
2048.8914939880133
 20
-1526.3318555593307
 30
0.0
 10
2041.5382205841997
 20
-1526.3318555593307
 30
0.0
 10
2034.1849471803864
 20
-1526.3318555593307
 30
0.0
  0
SPLINE
  5
B0
100
AcDbEntity
  8
一般
370
               9
  6
Continuous
 62
               7
100
AcDbSpline
210
0.0
220
0.0
230
1.0
 70
               9
 71
               2
 72
              16
 73
              13
 74
               0
 42
0.000001
 43
0.000001
 40
0.0
 40
0.0
 40
0.0
 40
1.0
 40
1.0
 40
2.0
 40
2.0
 40
3.0
 40
3.0
 40
4.0
 40
4.0
 40
5.0
 40
5.0
 40
6.0
 40
6.0
 40
6.0
 10
2053.3442591635394
 20
-1496.353552119072
 30
0.0
 10
2047.5964638361347
 20
-1487.1556639614846
 30
0.0
 10
2043.285621671728
 20
-1483.766969246039
 30
0.0
 10
2041.1302005895245
 20
-1482.0726218883162
 30
0.0
 10
2038.9747795073213
 20
-1480.3782745305934
 30
0.0
 10
2042.5671450902291
 20
-1476.7475264405489
 30
0.0
 10
2046.1595106731372
 20
-1473.1167783505041
 30
0.0
 10
2057.1761284900044
 20
-1481.8305597588931
 30
0.0
 10
2059.0920544909441
 20
-1485.2192632291624
 30
0.0
 10
2060.0500174914137
 20
-1486.9136149642973
 30
0.0
 10
2061.0079804918832
 20
-1488.6079666994319
 30
0.0
 10
2057.1761198277113
 20
-1492.480759409252
 30
0.0
 10
2053.3442591635394
 20
-1496.353552119072
 30
0.0
  0
SPLINE
  5
B1
100
AcDbEntity
  8
一般
370
               9
  6
Continuous
 62
               7
100
AcDbSpline
210
0.0
220
0.0
230
1.0
 70
               9
 71
               2
 72
              58
 73
              55
 74
               0
 42
0.000001
 43
0.000001
 40
0.0
 40
0.0
 40
0.0
 40
1.0
 40
1.0
 40
2.0
 40
2.0
 40
3.0
 40
3.0
 40
4.0
 40
4.0
 40
5.0
 40
5.0
 40
6.0
 40
6.0
 40
7.0
 40
7.0
 40
8.0
 40
8.0
 40
9.0
 40
9.0
 40
10.0
 40
10.0
 40
11.0
 40
11.0
 40
12.0
 40
12.0
 40
13.0
 40
13.0
 40
14.0
 40
14.0
 40
15.0
 40
15.0
 40
16.0
 40
16.0
 40
17.0
 40
17.0
 40
18.0
 40
18.0
 40
19.0
 40
19.0
 40
20.0
 40
20.0
 40
21.0
 40
21.0
 40
22.0
 40
22.0
 40
23.0
 40
23.0
 40
24.0
 40
24.0
 40
25.0
 40
25.0
 40
26.0
 40
26.0
 40
27.0
 40
27.0
 40
27.0
 10
2140.0401619125487
 20
-1516.6498606525449
 30
0.0
 10
2101.4820428649791
 20
-1516.6498606525449
 30
0.0
 10
2062.9239238174091
 20
-1516.6498606525449
 30
0.0
 10
2062.9239238174091
 20
-1512.0688464533509
 30
0.0
 10
2062.9239238174091
 20
-1507.4878322541572
 30
0.0
 10
2079.6173581315352
 20
-1507.4878322541572
 30
0.0
 10
2096.3107924456608
 20
-1507.4878322541572
 30
0.0
 10
2096.3107924456608
 20
-1499.9663615746927
 30
0.0
 10
2096.3107924456608
 20
-1492.4448908952279
 30
0.0
 10
2088.9575190418473
 20
-1492.4448908952279
 30
0.0
 10
2081.6042456380342
 20
-1492.4448908952279
 30
0.0
 10
2078.2513664740973
 20
-1499.2402102057188
 30
0.0
 10
2075.6169638916585
 20
-1502.3958252411892
 30
0.0
 10
2074.2997626004394
 20
-1503.9736327589242
 30
0.0
 10
2072.9825613092203
 20
-1505.5514402766592
 30
0.0
 10
2068.9112055637843
 20
-1502.6468435555882
 30
0.0
 10
2064.8398498183487
 20
-1499.7422468345173
 30
0.0
 10
2073.9405243096903
 20
-1489.5761626881811
 30
0.0
 10
2077.5328985548913
 20
-1479.894176536219
 30
0.0
 10
2079.329085677492
 20
-1475.053183460238
 30
0.0
 10
2081.1252728000923
 20
-1470.2121903842572
 30
0.0
 10
2085.9150964647342
 20
-1471.6644843673807
 30
0.0
 10
2090.7049201293758
 20
-1473.1167783505041
 30
0.0
 10
2092.6208461303149
 20
-1475.0531703280021
 30
0.0
 10
2090.9444065483463
 20
-1475.2952237026013
 30
0.0
 10
2090.1061867573617
 20
-1475.4162503899011
 30
0.0
 10
2089.2679669663776
 20
-1475.5372770772005
 30
0.0
 10
2087.8310311279665
 20
-1479.894167781395
 30
0.0
 10
2086.8730594652038
 20
-1481.5885151391178
 30
0.0
 10
2086.3940736338222
 20
-1482.4356888179791
 30
0.0
 10
2085.9150878024407
 20
-1483.2828624968406
 30
0.0
 10
2091.1129401240505
 20
-1483.2828624968406
 30
0.0
 10
2096.3107924456608
 20
-1483.2828624968406
 30
0.0
 10
2096.3107924456608
 20
-1475.5372770772005
 30
0.0
 10
2096.3107924456608
 20
-1467.7916916575607
 30
0.0
 10
2101.1715862781552
 20
-1467.7916916575607
 30
0.0
 10
2106.0323801106497
 20
-1467.7916916575607
 30
0.0
 10
2109.8642321125285
 20
-1468.2757808971112
 30
0.0
 10
2108.1877925305598
 20
-1469.4860302604595
 30
0.0
 10
2107.3495727395757
 20
-1470.0911549421335
 30
0.0
 10
2106.5113529485916
 20
-1470.6962796238076
 30
0.0
 10
2106.5113529485916
 20
-1476.9895710603241
 30
0.0
 10
2106.5113529485916
 20
-1483.2828624968406
 30
0.0
 10
2118.7254201848991
 20
-1483.2828624968406
 30
0.0
 10
2130.9394874212071
 20
-1483.2828624968406
 30
0.0
 10
2130.9394874212071
 20
-1487.8638766960344
 30
0.0
 10
2130.9394874212071
 20
-1492.4448908952279
 30
0.0
 10
2118.7254201848991
 20
-1492.4448908952279
 30
0.0
 10
2106.5113529485916
 20
-1492.4448908952279
 30
0.0
 10
2106.5113529485916
 20
-1499.9663615746927
 30
0.0
 10
2106.5113529485916
 20
-1507.4878322541572
 30
0.0
 10
2123.2757574305701
 20
-1507.4878322541572
 30
0.0
 10
2140.0401619125487
 20
-1507.4878322541572
 30
0.0
 10
2140.0401619125487
 20
-1512.0688464533509
 30
0.0
 10
2140.0401619125487
 20
-1516.6498606525449
 30
0.0
  0
LWPOLYLINE
  5
B2
100
AcDbEntity
  8
一般
370
               9
  6
Continuous
 62
               7
100
AcDbPolyline
 90
        8
 70
             129
 10
2126.6286279322139
 20
-1561.2228584617342
 10
2116.4280674292836
 20
-1561.2228584617342
 10
2116.4280674292836
 20
-1557.7983039870887
 10
2084.4781519640296
 20
-1557.7983039870887
 10
2084.4781519640296
 20
-1563.1592679488801
 10
2074.2775914610984
 20
-1563.1592679488801
 10
2074.2775914610984
 20
-1524.4313058313844
 10
2126.6286279322139
 20
-1524.4313058313844
  0
LWPOLYLINE
  5
B3
100
AcDbEntity
  8
一般
370
               9
  6
Continuous
 62
               7
100
AcDbPolyline
 90
        4
 70
             129
 10
2116.4280674292836
 20
-1548.6362755887014
 10
2116.4280674292836
 20
-1533.5933342297722
 10
2084.4781519640296
 20
-1533.5933342297722
 10
2084.4781519640296
 20
-1548.6362755887014
  0
SPLINE
  5
B4
100
AcDbEntity
  8
一般
370
               9
  6
Continuous
 62
               7
100
AcDbSpline
210
0.0
220
0.0
230
1.0
 70
               9
 71
               2
 72
              16
 73
              13
 74
               0
 42
0.000001
 43
0.000001
 40
0.0
 40
0.0
 40
0.0
 40
1.0
 40
1.0
 40
2.0
 40
2.0
 40
3.0
 40
3.0
 40
4.0
 40
4.0
 40
5.0
 40
5.0
 40
6.0
 40
6.0
 40
6.0
 10
2228.6735189486262
 20
-1546.6998836112034
 30
0.0
 10
2226.2786027851589
 20
-1533.629193988972
 30
0.0
 10
2223.6441915404275
 20
-1527.5779559270547
 30
0.0
 10
2222.3269859180618
 20
-1524.5523368960962
 30
0.0
 10
2221.0097802956961
 20
-1521.5267178651377
 30
0.0
 10
2225.5601175413672
 20
-1519.8323705074149
 30
0.0
 10
2230.1104547870382
 20
-1518.1380231496921
 30
0.0
 10
2236.3372402769705
 20
-1530.7246060227251
 30
0.0
 10
2237.2952032774401
 20
-1536.7758440846421
 30
0.0
 10
2237.7741847776751
 20
-1539.8014631156007
 30
0.0
 10
2238.2531662779102
 20
-1542.8270821465594
 30
0.0
 10
2233.4633426132682
 20
-1544.7634828788814
 30
0.0
 10
2228.6735189486262
 20
-1546.6998836112034
 30
0.0
  0
SPLINE
  5
B5
100
AcDbEntity
  8
一般
370
               9
  6
Continuous
 62
               7
100
AcDbSpline
210
0.0
220
0.0
230
1.0
 70
               9
 71
               2
 72
              64
 73
              61
 74
               0
 42
0.000001
 43
0.000001
 40
0.0
 40
0.0
 40
0.0
 40
1.0
 40
1.0
 40
2.0
 40
2.0
 40
3.0
 40
3.0
 40
4.0
 40
4.0
 40
5.0
 40
5.0
 40
6.0
 40
6.0
 40
7.0
 40
7.0
 40
8.0
 40
8.0
 40
9.0
 40
9.0
 40
10.0
 40
10.0
 40
11.0
 40
11.0
 40
12.0
 40
12.0
 40
13.0
 40
13.0
 40
14.0
 40
14.0
 40
15.0
 40
15.0
 40
16.0
 40
16.0
 40
17.0
 40
17.0
 40
18.0
 40
18.0
 40
19.0
 40
19.0
 40
20.0
 40
20.0
 40
21.0
 40
21.0
 40
22.0
 40
22.0
 40
23.0
 40
23.0
 40
24.0
 40
24.0
 40
25.0
 40
25.0
 40
26.0
 40
26.0
 40
27.0
 40
27.0
 40
28.0
 40
28.0
 40
29.0
 40
29.0
 40
30.0
 40
30.0
 40
30.0
 10
2189.9113855725723
 20
-1508.7249764369053
 30
0.0
 10
2187.0197475324803
 20
-1508.7249764369053
 30
0.0
 10
2184.1281094923879
 20
-1508.7249764369053
 30
0.0
 10
2184.1281094923879
 20
-1541.2672088858362
 30
0.0
 10
2184.1281094923879
 20
-1573.8094413347671
 30
0.0
 10
2179.595512623107
 20
-1573.8094413347671
 30
0.0
 10
2175.062915753826
 20
-1573.8094413347671
 30
0.0
 10
2175.062915753826
 20
-1541.2672088858362
 30
0.0
 10
2175.062915753826
 20
-1508.7249764369053
 30
0.0
 10
2171.692296213499
 20
-1508.7249764369053
 30
0.0
 10
2168.3216766731721
 20
-1508.7249764369053
 30
0.0
 10
2168.3216766731721
 20
-1543.9297609871319
 30
0.0
 10
2168.3216766731721
 20
-1579.1345455373585
 30
0.0
 10
2163.7890798038911
 20
-1579.1345455373585
 30
0.0
 10
2159.2564829346102
 20
-1579.1345455373585
 30
0.0
 10
2159.2564829346102
 20
-1539.9224941803122
 30
0.0
 10
2159.2564829346102
 20
-1500.7104428232662
 30
0.0
 10
2170.4948381317654
 20
-1500.7104428232662
 30
0.0
 10
2181.7331933289206
 20
-1500.7104428232662
 30
0.0
 10
2182.9306514106543
 20
-1492.4628207748278
 30
0.0
 10
2184.1281094923879
 20
-1484.2151987263896
 30
0.0
 10
2170.2376026741113
 20
-1484.2151987263896
 30
0.0
 10
2156.3470958558351
 20
-1484.2151987263896
 30
0.0
 10
2156.3470958558351
 20
-1479.6341845271959
 30
0.0
 10
2156.3470958558351
 20
-1475.0531703280021
 30
0.0
 10
2188.6784380757654
 20
-1475.0531703280021
 30
0.0
 10
2221.0097802956961
 20
-1475.0531703280021
 30
0.0
 10
2221.0097802956961
 20
-1479.6341845271959
 30
0.0
 10
2221.0097802956961
 20
-1484.2151987263896
 30
0.0
 10
2207.5982636399476
 20
-1484.2151987263896
 30
0.0
 10
2194.1867469841991
 20
-1484.2151987263896
 30
0.0
 10
2192.0313259019958
 20
-1492.4628207748278
 30
0.0
 10
2189.8759048197926
 20
-1500.7104428232662
 30
0.0
 10
2202.568944894042
 20
-1500.7104428232662
 30
0.0
 10
2215.2619849682915
 20
-1500.7104428232662
 30
0.0
 10
2215.2619849682915
 20
-1536.0496927156685
 30
0.0
 10
2215.2619849682915
 20
-1571.3889426080707
 30
0.0
 10
2215.2619849682915
 20
-1578.1304897894097
 30
0.0
 10
2211.9091058043546
 20
-1578.1304897894097
 30
0.0
 10
2210.2326662223859
 20
-1578.1304897894097
 30
0.0
 10
2208.5562266404177
 20
-1578.1304897894097
 30
0.0
 10
2206.4008055582144
 20
-1578.1304897894097
 30
0.0
 10
2204.2453844760107
 20
-1578.1304897894097
 30
0.0
 10
2203.2874214755411
 20
-1573.5494755902159
 30
0.0
 10
2202.3294584750711
 20
-1568.9684613910219
 30
0.0
 10
2203.7664029757757
 20
-1568.9684613910219
 30
0.0
 10
2205.2033474764803
 20
-1568.9684613910219
 30
0.0
 10
2206.19679122973
 20
-1568.9684613910219
 30
0.0
 10
2206.19679122973
 20
-1568.0002566474491
 30
0.0
 10
2206.19679122973
 20
-1567.5161542756625
 30
0.0
 10
2206.19679122973
 20
-1567.032051903876
 30
0.0
 10
2206.19679122973
 20
-1537.8785141703906
 30
0.0
 10
2206.19679122973
 20
-1508.7249764369053
 30
0.0
 10
2202.5866852704321
 20
-1508.7249764369053
 30
0.0
 10
2198.9765793111342
 20
-1508.7249764369053
 30
0.0
 10
2198.9765793111342
 20
-1541.2672088858362
 30
0.0
 10
2198.9765793111342
 20
-1573.8094413347671
 30
0.0
 10
2194.4439824418532
 20
-1573.8094413347671
 30
0.0
 10
2189.9113855725723
 20
-1573.8094413347671
 30
0.0
 10
2189.9113855725723
 20
-1541.2672088858362
 30
0.0
 10
2189.9113855725723
 20
-1508.7249764369053
 30
0.0
  0
SPLINE
  5
B6
100
AcDbEntity
  8
一般
370
               9
  6
Continuous
 62
               7
100
AcDbSpline
210
0.0
220
0.0
230
1.0
 70
               9
 71
               2
 72
              44
 73
              41
 74
               0
 42
0.000001
 43
0.000001
 40
0.0
 40
0.0
 40
0.0
 40
1.0
 40
1.0
 40
2.0
 40
2.0
 40
3.0
 40
3.0
 40
4.0
 40
4.0
 40
5.0
 40
5.0
 40
6.0
 40
6.0
 40
7.0
 40
7.0
 40
8.0
 40
8.0
 40
9.0
 40
9.0
 40
10.0
 40
10.0
 40
11.0
 40
11.0
 40
12.0
 40
12.0
 40
13.0
 40
13.0
 40
14.0
 40
14.0
 40
15.0
 40
15.0
 40
16.0
 40
16.0
 40
17.0
 40
17.0
 40
18.0
 40
18.0
 40
19.0
 40
19.0
 40
20.0
 40
20.0
 40
20.0
 10
2219.5728444572851
 20
-1505.9996697570098
 30
0.0
 10
2219.5728444572851
 20
-1501.418655557816
 30
0.0
 10
2219.5728444572851
 20
-1496.8376413586222
 30
0.0
 10
2230.9974736065342
 20
-1496.8376413586222
 30
0.0
 10
2242.4221027557837
 20
-1496.8376413586222
 30
0.0
 10
2242.4221027557837
 20
-1483.7669604912148
 30
0.0
 10
2242.4221027557837
 20
-1470.6962796238076
 30
0.0
 10
2247.2828879259851
 20
-1470.6962796238076
 30
0.0
 10
2252.1436730961864
 20
-1470.6962796238076
 30
0.0
 10
2255.9755424226514
 20
-1471.1803863730063
 30
0.0
 10
2254.2991028406827
 20
-1472.3906357363544
 30
0.0
 10
2253.4608830496982
 20
-1472.9957604180286
 30
0.0
 10
2252.6226632587141
 20
-1473.6008850997027
 30
0.0
 10
2252.6226632587141
 20
-1485.2192632291626
 30
0.0
 10
2252.6226632587141
 20
-1496.8376413586222
 30
0.0
 10
2258.6099450050897
 20
-1496.8376413586222
 30
0.0
 10
2264.5972267514653
 20
-1496.8376413586222
 30
0.0
 10
2264.5972267514653
 20
-1501.418655557816
 30
0.0
 10
2264.5972267514653
 20
-1505.9996697570098
 30
0.0
 10
2258.6099450050897
 20
-1505.9996697570098
 30
0.0
 10
2252.6226632587141
 20
-1505.9996697570098
 30
0.0
 10
2252.6226632587141
 20
-1538.2102081881658
 30
0.0
 10
2252.6226632587141
 20
-1570.4207466193216
 30
0.0
 10
2252.6226632587141
 20
-1578.1304897894097
 30
0.0
 10
2248.7907939322495
 20
-1578.1304897894097
 30
0.0
 10
2246.8748592690167
 20
-1578.1304897894097
 30
0.0
 10
2244.958924605784
 20
-1578.1304897894097
 30
0.0
 10
2240.1691009411425
 20
-1578.1304897894097
 30
0.0
 10
2235.3792772765009
 20
-1578.1304897894097
 30
0.0
 10
2234.6608006950019
 20
-1573.5494755902159
 30
0.0
 10
2233.9423241135028
 20
-1568.9684613910219
 30
0.0
 10
2237.5346983587042
 20
-1568.9684613910219
 30
0.0
 10
2241.1270726039052
 20
-1568.9684613910219
 30
0.0
 10
2242.4221027557837
 20
-1568.9684613910219
 30
0.0
 10
2242.4221027557837
 20
-1568.0002566474491
 30
0.0
 10
2242.4221027557837
 20
-1567.5161542756625
 30
0.0
 10
2242.4221027557837
 20
-1567.032051903876
 30
0.0
 10
2242.4221027557837
 20
-1536.5158608304428
 30
0.0
 10
2242.4221027557837
 20
-1505.9996697570098
 30
0.0
 10
2230.9974736065342
 20
-1505.9996697570098
 30
0.0
 10
2219.5728444572851
 20
-1505.9996697570098
 30
0.0
  0
SPLINE
  5
B7
100
AcDbEntity
  8
一般
370
               9
  6
Continuous
 62
               7
100
AcDbSpline
210
0.0
220
0.0
230
1.0
 70
               9
 71
               2
 72
              56
 73
              53
 74
               0
 42
0.000001
 43
0.000001
 40
0.0
 40
0.0
 40
0.0
 40
1.0
 40
1.0
 40
2.0
 40
2.0
 40
3.0
 40
3.0
 40
4.0
 40
4.0
 40
5.0
 40
5.0
 40
6.0
 40
6.0
 40
7.0
 40
7.0
 40
8.0
 40
8.0
 40
9.0
 40
9.0
 40
10.0
 40
10.0
 40
11.0
 40
11.0
 40
12.0
 40
12.0
 40
13.0
 40
13.0
 40
14.0
 40
14.0
 40
15.0
 40
15.0
 40
16.0
 40
16.0
 40
17.0
 40
17.0
 40
18.0
 40
18.0
 40
19.0
 40
19.0
 40
20.0
 40
20.0
 40
21.0
 40
21.0
 40
22.0
 40
22.0
 40
23.0
 40
23.0
 40
24.0
 40
24.0
 40
25.0
 40
25.0
 40
26.0
 40
26.0
 40
26.0
 10
2283.7780670207462
 20
-1565.5797491659287
 30
0.0
 10
2321.3161317504819
 20
-1552.6883758493448
 30
0.0
 10
2322.504719644021
 20
-1530.2494729681505
 30
0.0
 10
2323.0990135907905
 20
-1519.0300215275533
 30
0.0
 10
2323.6933075375596
 20
-1507.8105700869562
 30
0.0
 10
2306.6095849428557
 20
-1507.8105700869562
 30
0.0
 10
2289.5258623481513
 20
-1507.8105700869562
 30
0.0
 10
2289.5258623481513
 20
-1502.082061103014
 30
0.0
 10
2289.5258623481513
 20
-1496.353552119072
 30
0.0
 10
2306.8490800241198
 20
-1496.353552119072
 30
0.0
 10
2324.1722977000877
 20
-1496.353552119072
 30
0.0
 10
2324.1722977000877
 20
-1484.0090138658143
 30
0.0
 10
2324.1722977000877
 20
-1471.6644756125565
 30
0.0
 10
2329.6007662524735
 20
-1471.6644756125565
 30
0.0
 10
2335.0292348048592
 20
-1471.6644756125565
 30
0.0
 10
2339.8190671317939
 20
-1472.6326716013057
 30
0.0
 10
2337.6636460495911
 20
-1474.0849743392532
 30
0.0
 10
2336.5859355084895
 20
-1474.8111257082269
 30
0.0
 10
2335.5082249673874
 20
-1475.5372770772005
 30
0.0
 10
2335.5082249673874
 20
-1485.9454145981363
 30
0.0
 10
2335.5082249673874
 20
-1496.353552119072
 30
0.0
 10
2356.5834629514798
 20
-1496.353552119072
 30
0.0
 10
2377.6587009355721
 20
-1496.353552119072
 30
0.0
 10
2376.7007379351026
 20
-1535.0814967269193
 30
0.0
 10
2376.2217564348675
 20
-1544.7634828788812
 30
0.0
 10
2375.98226568475
 20
-1549.6044759548622
 30
0.0
 10
2375.7427749346325
 20
-1554.4454690308432
 30
0.0
 10
2374.7848119341629
 20
-1574.6162859167644
 30
0.0
 10
2368.0790536062887
 20
-1574.6162859167644
 30
0.0
 10
2364.7261744423513
 20
-1574.6162859167644
 30
0.0
 10
2361.3732952784144
 20
-1574.6162859167644
 30
0.0
 10
2351.7936392868378
 20
-1574.6162859167644
 30
0.0
 10
2342.2139832952616
 20
-1574.6162859167644
 30
0.0
 10
2341.2560116324985
 20
-1568.8877769328224
 30
0.0
 10
2340.2980399697358
 20
-1563.1592679488801
 30
0.0
 10
2348.4407514606073
 20
-1563.1592679488801
 30
0.0
 10
2356.5834629514793
 20
-1563.1592679488801
 30
0.0
 10
2364.2471842798236
 20
-1563.1592679488801
 30
0.0
 10
2364.4866793610877
 20
-1559.2864664842361
 30
0.0
 10
2364.6064269017197
 20
-1557.3500657519141
 30
0.0
 10
2364.7261744423513
 20
-1555.4136650195921
 30
0.0
 10
2365.6841374428213
 20
-1541.607867843411
 30
0.0
 10
2366.1631189430564
 20
-1524.7092189651837
 30
0.0
 10
2366.4026096931739
 20
-1516.25989452607
 30
0.0
 10
2366.6421004432909
 20
-1507.8105700869562
 30
0.0
 10
2350.8356676240751
 20
-1507.8105700869562
 30
0.0
 10
2335.0292348048592
 20
-1507.8105700869562
 30
0.0
 10
2335.0292348048592
 20
-1559.4836951598356
 30
0.0
 10
2312.0380534952415
 20
-1568.3409156050241
 30
0.0
 10
2300.5424628404326
 20
-1572.7695258276183
 30
0.0
 10
2289.0468721856232
 20
-1577.1981360502125
 30
0.0
 10
2286.4124696031849
 20
-1571.3889426080705
 30
0.0
 10
2283.7780670207462
 20
-1565.5797491659287
 30
0.0
  0
SPLINE
  5
B8
100
AcDbEntity
  8
一般
370
               9
  6
Continuous
 62
               7
100
AcDbSpline
210
0.0
220
0.0
230
1.0
 70
               9
 71
               2
 72
              24
 73
              21
 74
               0
 42
0.000001
 43
0.000001
 40
0.0
 40
0.0
 40
0.0
 40
1.0
 40
1.0
 40
2.0
 40
2.0
 40
3.0
 40
3.0
 40
4.0
 40
4.0
 40
5.0
 40
5.0
 40
6.0
 40
6.0
 40
7.0
 40
7.0
 40
8.0
 40
8.0
 40
9.0
 40
9.0
 40
10.0
 40
10.0
 40
10.0
 10
2407.4126496119729
 20
-1475.0531703280021
 30
0.0
 10
2429.428118882438
 20
-1475.0531703280021
 30
0.0
 10
2451.4435881529034
 20
-1475.0531703280021
 30
0.0
 10
2451.4435881529034
 20
-1487.7742272980345
 30
0.0
 10
2451.4435881529034
 20
-1500.4952842680671
 30
0.0
 10
2433.9607157517189
 20
-1500.4952842680671
 30
0.0
 10
2416.4778433505344
 20
-1500.4952842680671
 30
0.0
 10
2416.4778433505344
 20
-1505.4438609990596
 30
0.0
 10
2416.4778433505344
 20
-1510.3924377300521
 30
0.0
 10
2416.4778433505344
 20
-1527.82000054683
 30
0.0
 10
2410.9695431043938
 20
-1533.6291939889718
 30
0.0
 10
2408.2153929813239
 20
-1536.5337907100429
 30
0.0
 10
2405.4612428582536
 20
-1539.4383874311138
 30
0.0
 10
2402.5873451945513
 20
-1535.565594721294
 30
0.0
 10
2399.713447530849
 20
-1531.692802011474
 30
0.0
 10
2407.4126496119729
 20
-1524.4313058313844
 30
0.0
 10
2407.4126496119729
 20
-1516.6857204117446
 30
0.0
 10
2407.4126496119729
 20
-1512.8129277019248
 30
0.0
 10
2407.4126496119729
 20
-1508.9401349921047
 30
0.0
 10
2407.4126496119729
 20
-1491.9966526600533
 30
0.0
 10
2407.4126496119729
 20
-1475.0531703280021
 30
0.0
  0
LWPOLYLINE
  5
B9
100
AcDbEntity
  8
一般
370
               9
  6
Continuous
 62
               7
100
AcDbPolyline
 90
        4
 70
             129
 10
2442.3783944143415
 20
-1483.0677039416412
 10
2416.4778433505344
 20
-1483.0677039416412
 10
2416.4778433505344
 20
-1492.4807506544278
 10
2442.3783944143415
 20
-1492.4807506544278
  0
SPLINE
  5
BA
100
AcDbEntity
  8
一般
370
               9
  6
Continuous
 62
               7
100
AcDbSpline
210
0.0
220
0.0
230
1.0
 70
               9
 71
               2
 72
              64
 73
              61
 74
               0
 42
0.000001
 43
0.000001
 40
0.0
 40
0.0
 40
0.0
 40
1.0
 40
1.0
 40
2.0
 40
2.0
 40
3.0
 40
3.0
 40
4.0
 40
4.0
 40
5.0
 40
5.0
 40
6.0
 40
6.0
 40
7.0
 40
7.0
 40
8.0
 40
8.0
 40
9.0
 40
9.0
 40
10.0
 40
10.0
 40
11.0
 40
11.0
 40
12.0
 40
12.0
 40
13.0
 40
13.0
 40
14.0
 40
14.0
 40
15.0
 40
15.0
 40
16.0
 40
16.0
 40
17.0
 40
17.0
 40
18.0
 40
18.0
 40
19.0
 40
19.0
 40
20.0
 40
20.0
 40
21.0
 40
21.0
 40
22.0
 40
22.0
 40
23.0
 40
23.0
 40
24.0
 40
24.0
 40
25.0
 40
25.0
 40
26.0
 40
26.0
 40
27.0
 40
27.0
 40
28.0
 40
28.0
 40
29.0
 40
29.0
 40
30.0
 40
30.0
 40
30.0
 10
2492.1571456072634
 20
-1501.6786388120154
 30
0.0
 10
2500.7788299360768
 20
-1501.6786388120154
 30
0.0
 10
2509.4005142648903
 20
-1501.6786388120154
 30
0.0
 10
2509.4005142648903
 20
-1505.685905618835
 30
0.0
 10
2509.4005142648903
 20
-1509.6931724256544
 30
0.0
 10
2497.4259421098463
 20
-1509.6931724256544
 30
0.0
 10
2485.4513699548024
 20
-1509.6931724256544
 30
0.0
 10
2485.4513699548024
 20
-1514.3996957820477
 30
0.0
 10
2485.4513699548024
 20
-1519.1062191384412
 30
0.0
 10
2495.2705210276426
 20
-1519.1062191384412
 30
0.0
 10
2505.0896721004833
 20
-1519.1062191384412
 30
0.0
 10
2505.0896721004833
 20
-1523.687233337635
 30
0.0
 10
2505.0896721004833
 20
-1528.2682475368285
 30
0.0
 10
2495.2705210276426
 20
-1528.2682475368285
 30
0.0
 10
2485.4513699548024
 20
-1528.2682475368285
 30
0.0
 10
2485.4513699548024
 20
-1533.8533174839713
 30
0.0
 10
2485.4513699548024
 20
-1539.4383874311138
 30
0.0
 10
2480.351089703337
 20
-1539.4383874311138
 30
0.0
 10
2475.2508094518716
 20
-1539.4383874311138
 30
0.0
 10
2475.2508094518716
 20
-1533.8533174839713
 30
0.0
 10
2475.2508094518716
 20
-1528.2682475368285
 30
0.0
 10
2466.939573047589
 20
-1528.2682475368285
 30
0.0
 10
2458.6283366433058
 20
-1528.2682475368285
 30
0.0
 10
2458.6283366433058
 20
-1523.687233337635
 30
0.0
 10
2458.6283366433058
 20
-1519.1062191384412
 30
0.0
 10
2466.939573047589
 20
-1519.1062191384412
 30
0.0
 10
2475.2508094518716
 20
-1519.1062191384412
 30
0.0
 10
2475.2508094518716
 20
-1514.3996957820477
 30
0.0
 10
2475.2508094518716
 20
-1509.6931724256544
 30
0.0
 10
2465.2631334656198
 20
-1509.6931724256544
 30
0.0
 10
2455.2754574793685
 20
-1509.6931724256544
 30
0.0
 10
2455.2754574793685
 20
-1505.685905618835
 30
0.0
 10
2455.2754574793685
 20
-1501.6786388120154
 30
0.0
 10
2462.2207108885068
 20
-1501.6786388120154
 30
0.0
 10
2469.1659642976451
 20
-1501.6786388120154
 30
0.0
 10
2466.7710481341774
 20
-1495.0357234781241
 30
0.0
 10
2464.37613197071
 20
-1488.3928081442327
 30
0.0
 10
2461.0232528067731
 20
-1488.3928081442327
 30
0.0
 10
2457.6703736428362
 20
-1488.3928081442327
 30
0.0
 10
2457.6703736428362
 20
-1484.3855413374131
 30
0.0
 10
2457.6703736428362
 20
-1480.3782745305934
 30
0.0
 10
2466.4605915473539
 20
-1480.3782745305934
 30
0.0
 10
2475.2508094518716
 20
-1480.3782745305934
 30
0.0
 10
2475.2508094518716
 20
-1474.084983094077
 30
0.0
 10
2475.2508094518716
 20
-1467.7916916575607
 30
0.0
 10
2480.1116032843665
 20
-1467.7916916575607
 30
0.0
 10
2484.972397116861
 20
-1467.7916916575607
 30
0.0
 10
2488.804266443326
 20
-1468.2757808971112
 30
0.0
 10
2487.1278181990647
 20
-1469.4860302604595
 30
0.0
 10
2486.2895940769336
 20
-1470.0911549421335
 30
0.0
 10
2485.4513699548024
 20
-1470.6962796238076
 30
0.0
 10
2485.4513699548024
 20
-1475.5372770772005
 30
0.0
 10
2485.4513699548024
 20
-1480.3782745305934
 30
0.0
 10
2494.5520444461445
 20
-1480.3782745305934
 30
0.0
 10
2503.652718937486
 20
-1480.3782745305934
 30
0.0
 10
2503.652718937486
 20
-1484.3855413374131
 30
0.0
 10
2503.652718937486
 20
-1488.3928081442327
 30
0.0
 10
2500.7788299360768
 20
-1488.3928081442327
 30
0.0
 10
2497.9049409346676
 20
-1488.3928081442327
 30
0.0
 10
2495.0310432709657
 20
-1495.0357234781241
 30
0.0
 10
2492.1571456072634
 20
-1501.6786388120154
 30
0.0
  0
LWPOLYLINE
  5
BB
100
AcDbEntity
  8
一般
370
               9
  6
Continuous
 62
               7
100
AcDbPolyline
 90
        4
 70
             129
 10
2483.5354439538633
 20
-1501.6786388120154
 10
2488.804266443326
 20
-1488.3928081442327
 10
2472.9978162995235
 20
-1488.3928081442327
 10
2476.829685625989
 20
-1501.6786388120154
  0
LWPOLYLINE
  5
BC
100
AcDbEntity
  8
一般
370
               9
  6
Continuous
 62
               7
100
AcDbPolyline
 90
        6
 70
             129
 10
2451.4435881529034
 20
-1508.4560282429063
 10
2451.4435881529034
 20
-1534.8663381717201
 10
2427.4944611674018
 20
-1534.8663381717201
 10
2427.4944611674018
 20
-1539.4383874311138
 10
2418.4292674288399
 20
-1539.4383874311138
 10
2418.4292674288399
 20
-1508.4560282429063
  0
LWPOLYLINE
  5
BD
100
AcDbEntity
  8
一般
370
               9
  6
Continuous
 62
               7
100
AcDbPolyline
 90
        4
 70
             129
 10
2442.3783944143415
 20
-1516.4705618565451
 10
2427.4944611674018
 20
-1516.4705618565451
 10
2427.4944611674018
 20
-1526.8518045580809
 10
2442.3783944143415
 20
-1526.8518045580809
  0
SPLINE
  5
BE
100
AcDbEntity
  8
一般
370
               9
  6
Continuous
 62
               7
100
AcDbSpline
210
0.0
220
0.0
230
1.0
 70
               9
 71
               2
 72
              40
 73
              37
 74
               0
 42
0.000001
 43
0.000001
 40
0.0
 40
0.0
 40
0.0
 40
1.0
 40
1.0
 40
2.0
 40
2.0
 40
3.0
 40
3.0
 40
4.0
 40
4.0
 40
5.0
 40
5.0
 40
6.0
 40
6.0
 40
7.0
 40
7.0
 40
8.0
 40
8.0
 40
9.0
 40
9.0
 40
10.0
 40
10.0
 40
11.0
 40
11.0
 40
12.0
 40
12.0
 40
13.0
 40
13.0
 40
14.0
 40
14.0
 40
15.0
 40
15.0
 40
16.0
 40
16.0
 40
17.0
 40
17.0
 40
18.0
 40
18.0
 40
18.0
 10
2449.3857391408446
 20
-1545.7316876224543
 30
0.0
 10
2449.3857391408446
 20
-1541.616841538035
 30
0.0
 10
2449.3857391408446
 20
-1537.5019954536158
 30
0.0
 10
2454.2465329733391
 20
-1537.5019954536158
 30
0.0
 10
2459.1073268058335
 20
-1537.5019954536158
 30
0.0
 10
2462.9391788077128
 20
-1537.9861022028142
 30
0.0
 10
2461.2627392257436
 20
-1539.1963428113386
 30
0.0
 10
2460.4245194347595
 20
-1539.8014631156007
 30
0.0
 10
2459.5862996437754
 20
-1540.406583419863
 30
0.0
 10
2459.5862996437754
 20
-1543.0691355211586
 30
0.0
 10
2459.5862996437754
 20
-1545.7316876224543
 30
0.0
 10
2476.829685625989
 20
-1545.7316876224543
 30
0.0
 10
2494.0730716082026
 20
-1545.7316876224543
 30
0.0
 10
2494.0730716082026
 20
-1550.312701821648
 30
0.0
 10
2494.0730716082026
 20
-1554.8937160208418
 30
0.0
 10
2476.829685625989
 20
-1554.8937160208418
 30
0.0
 10
2459.5862996437754
 20
-1554.8937160208418
 30
0.0
 10
2459.5862996437754
 20
-1561.4469819567335
 30
0.0
 10
2459.5862996437754
 20
-1568.0002478926251
 30
0.0
 10
2483.0564624536282
 20
-1568.0002478926251
 30
0.0
 10
2506.5266252634815
 20
-1568.0002478926251
 30
0.0
 10
2506.5266252634815
 20
-1572.5812620918186
 30
0.0
 10
2506.5266252634815
 20
-1577.1622762910124
 30
0.0
 10
2454.7964759791339
 20
-1577.1622762910124
 30
0.0
 10
2403.0663266947859
 20
-1577.1622762910124
 30
0.0
 10
2403.0663266947859
 20
-1572.5812620918186
 30
0.0
 10
2403.0663266947859
 20
-1568.0002478926251
 30
0.0
 10
2426.2260329178152
 20
-1568.0002478926251
 30
0.0
 10
2449.3857391408446
 20
-1568.0002478926251
 30
0.0
 10
2449.3857391408446
 20
-1561.4469819567335
 30
0.0
 10
2449.3857391408446
 20
-1554.8937160208418
 30
0.0
 10
2432.4528097454549
 20
-1554.8937160208418
 30
0.0
 10
2415.5198803500648
 20
-1554.8937160208418
 30
0.0
 10
2415.5198803500648
 20
-1550.312701821648
 30
0.0
 10
2415.5198803500648
 20
-1545.7316876224543
 30
0.0
 10
2432.4528097454549
 20
-1545.7316876224543
 30
0.0
 10
2449.3857391408446
 20
-1545.7316876224543
 30
0.0
  0
SPLINE
  5
BF
100
AcDbEntity
  8
一般
370
               9
  6
Continuous
 62
               7
100
AcDbSpline
210
0.0
220
0.0
230
1.0
 70
               9
 71
               2
 72
              20
 73
              17
 74
               0
 42
0.000001
 43
0.000001
 40
0.0
 40
0.0
 40
0.0
 40
1.0
 40
1.0
 40
2.0
 40
2.0
 40
3.0
 40
3.0
 40
4.0
 40
4.0
 40
5.0
 40
5.0
 40
6.0
 40
6.0
 40
7.0
 40
7.0
 40
8.0
 40
8.0
 40
8.0
 10
1892.3050614598362
 20
-1639.1621797273569
 30
0.0
 10
1867.8769269872203
 20
-1678.8583378336014
 30
0.0
 10
1842.251343095164
 20
-1687.0880212476161
 30
0.0
 10
1829.4385511491359
 20
-1691.2028629546232
 30
0.0
 10
1816.6257592031077
 20
-1695.3177046616304
 30
0.0
 10
1815.1888233646964
 20
-1701.1268981037722
 30
0.0
 10
1813.5123837827277
 20
-1698.4643547573007
 30
0.0
 10
1812.6741639917434
 20
-1697.1330830840648
 30
0.0
 10
1811.8359442007591
 20
-1695.801811410829
 30
0.0
 10
1808.483056374529
 20
-1690.4767159630615
 30
0.0
 10
1805.1301685482988
 20
-1685.1516205152941
 30
0.0
 10
1857.339299332881
 20
-1673.53323363101
 30
0.0
 10
1870.5113295696588
 20
-1651.9908159749891
 30
0.0
 10
1877.0973446880475
 20
-1641.2196071469787
 30
0.0
 10
1883.6833598064363
 20
-1630.4483983189682
 30
0.0
 10
1887.9942106331364
 20
-1634.8052890231625
 30
0.0
 10
1892.3050614598362
 20
-1639.1621797273569
 30
0.0
  0
SPLINE
  5
C0
100
AcDbEntity
  8
一般
370
               9
  6
Continuous
 62
               7
100
AcDbSpline
210
0.0
220
0.0
230
1.0
 70
               9
 71
               2
 72
              16
 73
              13
 74
               0
 42
0.000001
 43
0.000001
 40
0.0
 40
0.0
 40
0.0
 40
1.0
 40
1.0
 40
2.0
 40
2.0
 40
3.0
 40
3.0
 40
4.0
 40
4.0
 40
5.0
 40
5.0
 40
6.0
 40
6.0
 40
6.0
 10
1818.5417025286333
 20
-1652.2328693495883
 30
0.0
 10
1804.172205547829
 20
-1641.5826784540534
 30
0.0
 10
1799.3823818831875
 20
-1639.1621797273569
 30
0.0
 10
1796.9874700508665
 20
-1637.9519303640086
 30
0.0
 10
1794.5925582185455
 20
-1636.7416810006605
 30
0.0
 10
1798.1849238014534
 20
-1631.6586389274923
 30
0.0
 10
1801.7772893843614
 20
-1626.5755968543242
 30
0.0
 10
1813.7518702016985
 20
-1632.8688970456647
 30
0.0
 10
1819.9786470293379
 20
-1637.4678411244581
 30
0.0
 10
1823.0920354431578
 20
-1639.7673131638551
 30
0.0
 10
1826.2054238569774
 20
-1642.066785203252
 30
0.0
 10
1822.3735631928052
 20
-1647.1498272764202
 30
0.0
 10
1818.5417025286333
 20
-1652.2328693495883
 30
0.0
  0
SPLINE
  5
C1
100
AcDbEntity
  8
一般
370
               9
  6
Continuous
 62
               7
100
AcDbSpline
210
0.0
220
0.0
230
1.0
 70
               9
 71
               2
 72
              16
 73
              13
 74
               0
 42
0.000001
 43
0.000001
 40
0.0
 40
0.0
 40
0.0
 40
1.0
 40
1.0
 40
2.0
 40
2.0
 40
3.0
 40
3.0
 40
4.0
 40
4.0
 40
5.0
 40
5.0
 40
6.0
 40
6.0
 40
6.0
 10
1832.9111821848514
 20
-1623.671008888077
 30
0.0
 10
1819.9786383670448
 20
-1614.4731207304897
 30
0.0
 10
1814.4703381209042
 20
-1611.3264706348198
 30
0.0
 10
1811.7161879978339
 20
-1609.7531455869844
 30
0.0
 10
1808.9620378747638
 20
-1608.1798205391492
 30
0.0
 10
1812.07543061973
 20
-1603.0967784659811
 30
0.0
 10
1815.1888233646964
 20
-1598.0137363928131
 30
0.0
 10
1828.1213498579168
 20
-1605.2752325729025
 30
0.0
 10
1833.8691451853213
 20
-1609.3900786573217
 30
0.0
 10
1836.7430428490234
 20
-1611.4475016995314
 30
0.0
 10
1839.6169405127257
 20
-1613.504924741741
 30
0.0
 10
1836.2640613487886
 20
-1618.5879668149091
 30
0.0
 10
1832.9111821848514
 20
-1623.671008888077
 30
0.0
  0
SPLINE
  5
C2
100
AcDbEntity
  8
一般
370
               9
  6
Continuous
 62
               7
100
AcDbSpline
210
0.0
220
0.0
230
1.0
 70
               9
 71
               2
 72
              16
 73
              13
 74
               0
 42
0.000001
 43
0.000001
 40
0.0
 40
0.0
 40
0.0
 40
1.0
 40
1.0
 40
2.0
 40
2.0
 40
3.0
 40
3.0
 40
4.0
 40
4.0
 40
5.0
 40
5.0
 40
6.0
 40
6.0
 40
6.0
 10
1872.6667593141551
 20
-1590.7522577223717
 30
0.0
 10
1880.8094708050271
 20
-1597.045540404064
 30
0.0
 10
1884.8808265504631
 20
-1601.4024311082583
 30
0.0
 10
1886.9165044231811
 20
-1603.5808764603555
 30
0.0
 10
1888.9521822958991
 20
-1605.7593218124528
 30
0.0
 10
1885.8387895509327
 20
-1608.9059719081231
 30
0.0
 10
1882.7253968059665
 20
-1612.0526220037934
 30
0.0
 10
1874.1037124771528
 20
-1602.3706270970076
 30
0.0
 10
1870.2718431506878
 20
-1599.4660303759365
 30
0.0
 10
1868.3559084874553
 20
-1598.0137320154008
 30
0.0
 10
1866.4399738242228
 20
-1596.5614336548654
 30
0.0
 10
1869.5533665691889
 20
-1593.6568456886184
 30
0.0
 10
1872.6667593141551
 20
-1590.7522577223717
 30
0.0
  0
SPLINE
  5
C3
100
AcDbEntity
  8
一般
370
               9
  6
Continuous
 62
               7
100
AcDbSpline
210
0.0
220
0.0
230
1.0
 70
               9
 71
               2
 72
              16
 73
              13
 74
               0
 42
0.000001
 43
0.000001
 40
0.0
 40
0.0
 40
0.0
 40
1.0
 40
1.0
 40
2.0
 40
2.0
 40
3.0
 40
3.0
 40
4.0
 40
4.0
 40
5.0
 40
5.0
 40
6.0
 40
6.0
 40
6.0
 10
1861.1711686593462
 20
-1598.981932381562
 30
0.0
 10
1869.3138801502182
 20
-1605.7593218124528
 30
0.0
 10
1873.3852358956542
 20
-1610.1162212714712
 30
0.0
 10
1875.4209137683722
 20
-1612.2946710009805
 30
0.0
 10
1877.4565916410902
 20
-1614.4731207304897
 30
0.0
 10
1874.3431988961238
 20
-1617.3777174515608
 30
0.0
 10
1871.2298061511576
 20
-1620.2823141726319
 30
0.0
 10
1863.0870946602856
 20
-1611.5685152545948
 30
0.0
 10
1858.7762524958787
 20
-1607.9377759193742
 30
0.0
 10
1856.6208314136752
 20
-1606.1224062517638
 30
0.0
 10
1854.465410331472
 20
-1604.3070365841534
 30
0.0
 10
1857.8182894954091
 20
-1601.6444844828577
 30
0.0
 10
1861.1711686593462
 20
-1598.981932381562
 30
0.0
  0
SPLINE
  5
C4
100
AcDbEntity
  8
一般
370
               9
  6
Continuous
 62
               7
100
AcDbSpline
210
0.0
220
0.0
230
1.0
 70
               9
 71
               2
 72
              48
 73
              45
 74
               0
 42
0.000001
 43
0.000001
 40
0.0
 40
0.0
 40
0.0
 40
1.0
 40
1.0
 40
2.0
 40
2.0
 40
3.0
 40
3.0
 40
4.0
 40
4.0
 40
5.0
 40
5.0
 40
6.0
 40
6.0
 40
7.0
 40
7.0
 40
8.0
 40
8.0
 40
9.0
 40
9.0
 40
10.0
 40
10.0
 40
11.0
 40
11.0
 40
12.0
 40
12.0
 40
13.0
 40
13.0
 40
14.0
 40
14.0
 40
15.0
 40
15.0
 40
16.0
 40
16.0
 40
17.0
 40
17.0
 40
18.0
 40
18.0
 40
19.0
 40
19.0
 40
20.0
 40
20.0
 40
21.0
 40
21.0
 40
22.0
 40
22.0
 40
22.0
 10
1955.5523210228282
 20
-1640.6144824653045
 30
0.0
 10
1975.190614506216
 20
-1635.7734937667356
 30
0.0
 10
1994.8289079896037
 20
-1630.9325050681666
 30
0.0
 10
1996.0263660713376
 20
-1630.2063536991927
 30
0.0
 10
1997.2238241530713
 20
-1629.4802023302191
 30
0.0
 10
2001.0556934795363
 20
-1633.3529950400389
 30
0.0
 10
2004.8875628060016
 20
-1637.2257877498589
 30
0.0
 10
2006.803488806941
 20
-1639.1621797273569
 30
0.0
 10
2005.1270492249723
 20
-1639.6462777217316
 30
0.0
 10
2004.2888294339882
 20
-1639.888326718919
 30
0.0
 10
2003.4506096430039
 20
-1640.1303757161061
 30
0.0
 10
1994.8289079896037
 20
-1654.1692613270864
 30
0.0
 10
1990.0390843249622
 20
-1660.7046061382021
 30
0.0
 10
1987.6441724926412
 20
-1663.9722785437598
 30
0.0
 10
1985.2492606603205
 20
-1667.2399509493177
 30
0.0
 10
1981.1779049148845
 20
-1664.5774076028461
 30
0.0
 10
1977.1065491694485
 20
-1661.9148642563741
 30
0.0
 10
1984.7702704977926
 20
-1651.7487626003899
 30
0.0
 10
1988.1231496617297
 20
-1646.1816225328473
 30
0.0
 10
1989.7995892436982
 20
-1643.3980524990759
 30
0.0
 10
1991.4760288256666
 20
-1640.6144824653045
 30
0.0
 10
1974.9511194249519
 20
-1644.7293285497235
 30
0.0
 10
1958.4262100242372
 20
-1648.8441746341427
 30
0.0
 10
1966.5689215151092
 20
-1673.2911890112348
 30
0.0
 10
1974.7116330059812
 20
-1697.7382033883268
 30
0.0
 10
1969.9218093413394
 20
-1699.4325507460494
 30
0.0
 10
1965.1319856766977
 20
-1701.1268981037722
 30
0.0
 10
1957.2287606047967
 20
-1675.9537323577065
 30
0.0
 10
1949.3255355328956
 20
-1650.7805666116408
 30
0.0
 10
1935.4350373769125
 20
-1654.6533593214608
 30
0.0
 10
1921.5445392209292
 20
-1658.5261520312808
 30
0.0
 10
1919.8680996389608
 20
-1653.6851633327119
 30
0.0
 10
1918.1916600569921
 20
-1648.8441746341427
 30
0.0
 10
1932.0821582129754
 20
-1645.6975245384726
 30
0.0
 10
1945.9726563689587
 20
-1642.5508744428025
 30
0.0
 10
1942.1407957047868
 20
-1630.9324963133427
 30
0.0
 10
1938.3089350406146
 20
-1619.3141181838826
 30
0.0
 10
1943.3382537865205
 20
-1618.3459134403097
 30
0.0
 10
1948.367572532426
 20
-1617.3777086967368
 30
0.0
 10
1952.678432021419
 20
-1617.3777086967368
 30
0.0
 10
1951.2414788584213
 20
-1619.0720560544594
 30
0.0
 10
1950.5230022769224
 20
-1619.9192297333207
 30
0.0
 10
1949.8045256954238
 20
-1620.7664034121822
 30
0.0
 10
1952.6784233591261
 20
-1630.6904429387432
 30
0.0
 10
1955.5523210228282
 20
-1640.6144824653045
 30
0.0
  0
SPLINE
  5
C5
100
AcDbEntity
  8
一般
370
               9
  6
Continuous
 62
               7
100
AcDbSpline
210
0.0
220
0.0
230
1.0
 70
               9
 71
               2
 72
              36
 73
              33
 74
               0
 42
0.000001
 43
0.000001
 40
0.0
 40
0.0
 40
0.0
 40
1.0
 40
1.0
 40
2.0
 40
2.0
 40
3.0
 40
3.0
 40
4.0
 40
4.0
 40
5.0
 40
5.0
 40
6.0
 40
6.0
 40
7.0
 40
7.0
 40
8.0
 40
8.0
 40
9.0
 40
9.0
 40
10.0
 40
10.0
 40
11.0
 40
11.0
 40
12.0
 40
12.0
 40
13.0
 40
13.0
 40
14.0
 40
14.0
 40
15.0
 40
15.0
 40
16.0
 40
16.0
 40
16.0
 10
2124.6547953179829
 20
-1619.7982074234333
 30
0.0
 10
2118.9069999905782
 20
-1619.7982074234333
 30
0.0
 10
2116.9910653273455
 20
-1617.8618154459352
 30
0.0
 10
2116.0330979957293
 20
-1616.8936194571863
 30
0.0
 10
2115.0751306641132
 20
-1615.9254234684374
 30
0.0
 10
2111.2432786622339
 20
-1612.0526220037934
 30
0.0
 10
2111.2432786622339
 20
-1609.1480252827223
 30
0.0
 10
2111.2432786622339
 20
-1607.6957269221869
 30
0.0
 10
2111.2432786622339
 20
-1606.2434285616514
 30
0.0
 10
2111.2432786622339
 20
-1600.4342351195096
 30
0.0
 10
2113.1592046631736
 20
-1598.4978343871876
 30
0.0
 10
2114.1171676636432
 20
-1597.5296340210266
 30
0.0
 10
2115.0751306641132
 20
-1596.5614336548654
 30
0.0
 10
2118.9069999905782
 20
-1592.6886496998695
 30
0.0
 10
2121.7808976542806
 20
-1592.6886496998695
 30
0.0
 10
2123.2178464861317
 20
-1592.6886496998695
 30
0.0
 10
2124.6547953179829
 20
-1592.6886496998695
 30
0.0
 10
2130.4025906453876
 20
-1592.6886496998695
 30
0.0
 10
2132.3185253086199
 20
-1594.6250416773676
 30
0.0
 10
2133.276492640236
 20
-1595.5932376661165
 30
0.0
 10
2134.2344599718522
 20
-1596.5614336548654
 30
0.0
 10
2138.066311973731
 20
-1600.4342351195096
 30
0.0
 10
2138.066311973731
 20
-1603.3388318405805
 30
0.0
 10
2138.066311973731
 20
-1604.7911302011159
 30
0.0
 10
2138.066311973731
 20
-1606.2434285616514
 30
0.0
 10
2138.066311973731
 20
-1612.0526220037934
 30
0.0
 10
2136.1503859727918
 20
-1613.9890227361154
 30
0.0
 10
2135.1924229723218
 20
-1614.9572231022764
 30
0.0
 10
2134.2344599718522
 20
-1615.9254234684374
 30
0.0
 10
2130.4025906453876
 20
-1619.7982074234333
 30
0.0
 10
2127.5286929816853
 20
-1619.7982074234333
 30
0.0
 10
2126.0917441498341
 20
-1619.7982074234333
 30
0.0
 10
2124.6547953179829
 20
-1619.7982074234333
 30
0.0
  0
SPLINE
  5
C6
100
AcDbEntity
  8
一般
370
               9
  6
Continuous
 62
               7
100
AcDbSpline
210
0.0
220
0.0
230
1.0
 70
               9
 71
               2
 72
              36
 73
              33
 74
               0
 42
0.000001
 43
0.000001
 40
0.0
 40
0.0
 40
0.0
 40
1.0
 40
1.0
 40
2.0
 40
2.0
 40
3.0
 40
3.0
 40
4.0
 40
4.0
 40
5.0
 40
5.0
 40
6.0
 40
6.0
 40
7.0
 40
7.0
 40
8.0
 40
8.0
 40
9.0
 40
9.0
 40
10.0
 40
10.0
 40
11.0
 40
11.0
 40
12.0
 40
12.0
 40
13.0
 40
13.0
 40
14.0
 40
14.0
 40
15.0
 40
15.0
 40
16.0
 40
16.0
 40
16.0
 10
2124.6547953179829
 20
-1614.9572099700404
 30
0.0
 10
2128.486664644448
 20
-1614.9572099700404
 30
0.0
 10
2129.6841227261816
 20
-1613.746969361516
 30
0.0
 10
2130.2828517670487
 20
-1613.1418490572539
 30
0.0
 10
2130.8815808079153
 20
-1612.5367287529918
 30
0.0
 10
2133.2764796467964
 20
-1610.1162300262954
 30
0.0
 10
2133.2764796467964
 20
-1608.1798292939734
 30
0.0
 10
2133.2764796467964
 20
-1607.2116289278124
 30
0.0
 10
2133.2764796467964
 20
-1606.2434285616514
 30
0.0
 10
2133.2764796467964
 20
-1602.3706270970076
 30
0.0
 10
2132.0790302273558
 20
-1601.1603864884833
 30
0.0
 10
2131.4803055176353
 20
-1600.5552661842212
 30
0.0
 10
2130.8815808079153
 20
-1599.9501458799589
 30
0.0
 10
2128.486664644448
 20
-1597.5296471532624
 30
0.0
 10
2126.5707299812157
 20
-1597.5296471532624
 30
0.0
 10
2125.6127626495991
 20
-1597.5296471532624
 30
0.0
 10
2124.6547953179829
 20
-1597.5296471532624
 30
0.0
 10
2120.8229259915179
 20
-1597.5296471532624
 30
0.0
 10
2119.6254765720773
 20
-1598.7398965166108
 30
0.0
 10
2119.0267518623568
 20
-1599.3450211982849
 30
0.0
 10
2118.4280271526363
 20
-1599.9501458799589
 30
0.0
 10
2116.0331109891695
 20
-1602.3706270970076
 30
0.0
 10
2116.0331109891695
 20
-1604.3070278293294
 30
0.0
 10
2116.0331109891695
 20
-1605.2752281954904
 30
0.0
 10
2116.0331109891695
 20
-1606.2434285616514
 30
0.0
 10
2116.0331109891695
 20
-1610.1162300262954
 30
0.0
 10
2117.2305690709031
 20
-1611.3264793896435
 30
0.0
 10
2117.8292981117697
 20
-1611.9316040713177
 30
0.0
 10
2118.4280271526363
 20
-1612.5367287529918
 30
0.0
 10
2120.8229259915179
 20
-1614.9572099700404
 30
0.0
 10
2122.7388606547502
 20
-1614.9572099700404
 30
0.0
 10
2123.6968279863668
 20
-1614.9572099700404
 30
0.0
 10
2124.6547953179829
 20
-1614.9572099700404
 30
0.0
  0
SPLINE
  5
C7
100
AcDbEntity
  8
一般
370
               9
  6
Continuous
 62
               7
100
AcDbSpline
210
0.0
220
0.0
230
1.0
 70
               9
 71
               2
 72
              16
 73
              13
 74
               0
 42
0.000001
 43
0.000001
 40
0.0
 40
0.0
 40
0.0
 40
1.0
 40
1.0
 40
2.0
 40
2.0
 40
3.0
 40
3.0
 40
4.0
 40
4.0
 40
5.0
 40
5.0
 40
6.0
 40
6.0
 40
6.0
 10
2105.4954833348302
 20
-1617.3777086967368
 30
0.0
 10
2129.4446276449175
 20
-1647.8759786453941
 30
0.0
 10
2134.4739463908236
 20
-1664.8194522226213
 30
0.0
 10
2136.9886057637759
 20
-1673.291189011235
 30
0.0
 10
2139.5032651367287
 20
-1681.7629257998485
 30
0.0
 10
2133.0369932278254
 20
-1683.9413711519458
 30
0.0
 10
2126.5707213189221
 20
-1686.119816504043
 30
0.0
 10
2114.5961578261713
 20
-1647.8759786453941
 30
0.0
 10
2105.0165018345947
 20
-1636.4996451357094
 30
0.0
 10
2100.2266738388066
 20
-1630.8114783808671
 30
0.0
 10
2095.4368458430185
 20
-1625.1233116260248
 30
0.0
 10
2100.4661645889246
 20
-1621.2505101613808
 30
0.0
 10
2105.4954833348302
 20
-1617.3777086967368
 30
0.0
  0
SPLINE
  5
C8
100
AcDbEntity
  8
一般
370
               9
  6
Continuous
 62
               7
100
AcDbSpline
210
0.0
220
0.0
230
1.0
 70
               9
 71
               2
 72
              20
 73
              17
 74
               0
 42
0.000001
 43
0.000001
 40
0.0
 40
0.0
 40
0.0
 40
1.0
 40
1.0
 40
2.0
 40
2.0
 40
3.0
 40
3.0
 40
4.0
 40
4.0
 40
5.0
 40
5.0
 40
6.0
 40
6.0
 40
7.0
 40
7.0
 40
8.0
 40
8.0
 40
8.0
 10
2069.0927853694629
 20
-1628.5120063414702
 30
0.0
 10
2072.9246546959284
 20
-1630.9325050681666
 30
0.0
 10
2070.5297385324611
 20
-1631.9007010569155
 30
0.0
 10
2069.3322804507275
 20
-1632.38479905129
 30
0.0
 10
2068.1348223689938
 20
-1632.8688970456647
 30
0.0
 10
2059.5131207155937
 20
-1663.3671494846737
 30
0.0
 10
2049.9334647240171
 20
-1675.9537323577065
 30
0.0
 10
2045.1436367282288
 20
-1682.247023794223
 30
0.0
 10
2040.3538087324405
 20
-1688.5403152307395
 30
0.0
 10
2034.8455084863001
 20
-1684.9095758955186
 30
0.0
 10
2029.3372082401597
 20
-1681.278836560298
 30
0.0
 10
2050.4124462242521
 20
-1655.6215640650339
 30
0.0
 10
2054.0048204694531
 20
-1639.4042331019564
 30
0.0
 10
2055.8010075920538
 20
-1631.2955676204174
 30
0.0
 10
2057.5971947146541
 20
-1623.1869021388786
 30
0.0
 10
2063.3449900420583
 20
-1625.8494542401745
 30
0.0
 10
2069.0927853694629
 20
-1628.5120063414702
 30
0.0
  0
SPLINE
  5
C9
100
AcDbEntity
  8
一般
370
               9
  6
Continuous
 62
               7
100
AcDbSpline
210
0.0
220
0.0
230
1.0
 70
               9
 71
               2
 72
              20
 73
              17
 74
               0
 42
0.000001
 43
0.000001
 40
0.0
 40
0.0
 40
0.0
 40
1.0
 40
1.0
 40
2.0
 40
2.0
 40
3.0
 40
3.0
 40
4.0
 40
4.0
 40
5.0
 40
5.0
 40
6.0
 40
6.0
 40
7.0
 40
7.0
 40
8.0
 40
8.0
 40
8.0
 10
2259.7494878112384
 20
-1636.7416810006605
 30
0.0
 10
2234.3633903381524
 20
-1689.992617968687
 30
0.0
 10
2204.4269642816889
 20
-1691.4449207066345
 30
0.0
 10
2189.4587512534576
 20
-1692.1710720756082
 30
0.0
 10
2174.4905382252264
 20
-1692.8972234445819
 30
0.0
 10
2172.0956220617586
 20
-1699.1905061262744
 30
0.0
 10
2170.8981639800249
 20
-1696.5279627798027
 30
0.0
 10
2170.2994349391583
 20
-1695.196691106567
 30
0.0
 10
2169.7007058982913
 20
-1693.865419433331
 30
0.0
 10
2167.7847798973517
 20
-1687.5721279968145
 30
0.0
 10
2165.8688538964125
 20
-1681.278836560298
 30
0.0
 10
2228.1366221728063
 20
-1679.8265338223505
 30
0.0
 10
2238.9137362461165
 20
-1654.6533680762848
 30
0.0
 10
2244.3022932827716
 20
-1642.066785203252
 30
0.0
 10
2249.6908503194268
 20
-1629.4802023302191
 30
0.0
 10
2254.7201690653328
 20
-1633.1109416654399
 30
0.0
 10
2259.7494878112384
 20
-1636.7416810006605
 30
0.0
  0
SPLINE
  5
CA
100
AcDbEntity
  8
一般
370
               9
  6
Continuous
 62
               7
100
AcDbSpline
210
0.0
220
0.0
230
1.0
 70
               9
 71
               2
 72
              16
 73
              13
 74
               0
 42
0.000001
 43
0.000001
 40
0.0
 40
0.0
 40
0.0
 40
1.0
 40
1.0
 40
2.0
 40
2.0
 40
3.0
 40
3.0
 40
4.0
 40
4.0
 40
5.0
 40
5.0
 40
6.0
 40
6.0
 40
6.0
 10
2192.2129143699676
 20
-1636.7416810006605
 30
0.0
 10
2179.280370552161
 20
-1624.6392048768262
 30
0.0
 10
2173.5325752247563
 20
-1620.7664121670061
 30
0.0
 10
2170.658677561054
 20
-1618.8300158120962
 30
0.0
 10
2167.7847798973517
 20
-1616.8936194571863
 30
0.0
 10
2171.8561356427876
 20
-1611.810577384018
 30
0.0
 10
2175.9274913882236
 20
-1606.7275353108498
 30
0.0
 10
2185.9861288800353
 20
-1613.0208179925423
 30
0.0
 10
2193.6498588706722
 20
-1620.2823054178077
 30
0.0
 10
2197.4817238659907
 20
-1623.9130491304404
 30
0.0
 10
2201.3135888613092
 20
-1627.5437928430731
 30
0.0
 10
2196.7632516156382
 20
-1632.1427369218668
 30
0.0
 10
2192.2129143699676
 20
-1636.7416810006605
 30
0.0
  0
SPLINE
  5
CB
100
AcDbEntity
  8
一般
370
               9
  6
Continuous
 62
               7
100
AcDbSpline
210
0.0
220
0.0
230
1.0
 70
               9
 71
               2
 72
              62
 73
              59
 74
               0
 42
0.000001
 43
0.000001
 40
0.0
 40
0.0
 40
0.0
 40
1.0
 40
1.0
 40
2.0
 40
2.0
 40
3.0
 40
3.0
 40
4.0
 40
4.0
 40
5.0
 40
5.0
 40
6.0
 40
6.0
 40
7.0
 40
7.0
 40
8.0
 40
8.0
 40
9.0
 40
9.0
 40
10.0
 40
10.0
 40
11.0
 40
11.0
 40
12.0
 40
12.0
 40
13.0
 40
13.0
 40
14.0
 40
14.0
 40
15.0
 40
15.0
 40
16.0
 40
16.0
 40
17.0
 40
17.0
 40
18.0
 40
18.0
 40
19.0
 40
19.0
 40
20.0
 40
20.0
 40
21.0
 40
21.0
 40
22.0
 40
22.0
 40
23.0
 40
23.0
 40
24.0
 40
24.0
 40
25.0
 40
25.0
 40
26.0
 40
26.0
 40
27.0
 40
27.0
 40
28.0
 40
28.0
 40
29.0
 40
29.0
 40
29.0
 10
2356.6852197256967
 20
-1632.707528129265
 30
0.0
 10
2343.1938627139007
 20
-1633.1916261236397
 30
0.0
 10
2329.7025057021042
 20
-1633.6757241180142
 30
0.0
 10
2326.828616700695
 20
-1674.3042184538076
 30
0.0
 10
2309.3457442995104
 20
-1686.0212109210672
 30
0.0
 10
2300.6043080989184
 20
-1691.8797071546969
 30
0.0
 10
2291.8628718983264
 20
-1697.7382033883268
 30
0.0
 10
2287.7915161528904
 20
-1693.6233573039076
 30
0.0
 10
2283.7201604074544
 20
-1689.5085112194886
 30
0.0
 10
2316.468392810255
 20
-1667.5626887821168
 30
0.0
 10
2317.41748562253
 20
-1650.6192064500653
 30
0.0
 10
2317.892032028667
 20
-1642.1474652840398
 30
0.0
 10
2318.3665784348045
 20
-1633.6757241180142
 30
0.0
 10
2301.5223509213647
 20
-1634.1598221123886
 30
0.0
 10
2284.6781234079244
 20
-1634.6439201067631
 30
0.0
 10
2284.1991419076894
 20
-1629.3995091171955
 30
0.0
 10
2283.7201604074544
 20
-1624.1550981276278
 30
0.0
 10
2301.2828645023937
 20
-1623.6710001332531
 30
0.0
 10
2318.8455685973327
 20
-1623.1869021388786
 30
0.0
 10
2318.8455685973327
 20
-1609.6321232770968
 30
0.0
 10
2318.8455685973327
 20
-1596.0773444153149
 30
0.0
 10
2324.0345507307475
 20
-1596.0773444153149
 30
0.0
 10
2329.2235328641627
 20
-1596.0773444153149
 30
0.0
 10
2334.4923380290393
 20
-1597.045540404064
 30
0.0
 10
2332.3369169468356
 20
-1598.4978431420113
 30
0.0
 10
2331.2592064057335
 20
-1599.223994510985
 30
0.0
 10
2330.1814958646319
 20
-1599.9501458799589
 30
0.0
 10
2330.1814958646319
 20
-1611.5685240094188
 30
0.0
 10
2330.1814958646319
 20
-1623.1869021388786
 30
0.0
 10
2349.1013214288141
 20
-1622.4607595247289
 30
0.0
 10
2368.0211469929964
 20
-1621.7346169105792
 30
0.0
 10
2368.0211469929964
 20
-1636.7416897554845
 30
0.0
 10
2368.0211469929964
 20
-1651.7487626003899
 30
0.0
 10
2368.0211469929964
 20
-1675.4696431181562
 30
0.0
 10
2365.8657259107931
 20
-1680.3106318167252
 30
0.0
 10
2364.7880153696915
 20
-1682.7311261660097
 30
0.0
 10
2363.7103048285899
 20
-1685.1516205152941
 30
0.0
 10
2359.3994453395967
 20
-1694.8336154220799
 30
0.0
 10
2352.4542005927515
 20
-1694.8336154220799
 30
0.0
 10
2348.9815782193291
 20
-1694.8336154220799
 30
0.0
 10
2345.5089558459063
 20
-1694.8336154220799
 30
0.0
 10
2339.761160518502
 20
-1694.8336154220799
 30
0.0
 10
2334.0133651910974
 20
-1694.8336154220799
 30
0.0
 10
2333.2948886095983
 20
-1688.7823686053389
 30
0.0
 10
2332.5764120280996
 20
-1682.7311217885976
 30
0.0
 10
2339.761160518502
 20
-1683.6993352869947
 30
0.0
 10
2342.3955631009403
 20
-1683.6993352869947
 30
0.0
 10
2343.7127643921594
 20
-1683.6993352869947
 30
0.0
 10
2345.0299656833786
 20
-1683.6993352869947
 30
0.0
 10
2352.214714173781
 20
-1683.6993352869947
 30
0.0
 10
2353.1726771742506
 20
-1681.278836560298
 30
0.0
 10
2353.6516586744851
 20
-1680.0685871969497
 30
0.0
 10
2354.1306401747197
 20
-1678.8583378336014
 30
0.0
 10
2356.6852197256967
 20
-1671.1127349043136
 30
0.0
 10
2356.6852197256967
 20
-1661.4307487523517
 30
0.0
 10
2356.6852197256967
 20
-1656.5897556763707
 30
0.0
 10
2356.6852197256967
 20
-1651.7487626003899
 30
0.0
 10
2356.6852197256967
 20
-1642.2281453648275
 30
0.0
 10
2356.6852197256967
 20
-1632.707528129265
 30
0.0
  0
SPLINE
  5
CC
100
AcDbEntity
  8
一般
370
               9
  6
Continuous
 62
               7
100
AcDbSpline
210
0.0
220
0.0
230
1.0
 70
               9
 71
               2
 72
              28
 73
              25
 74
               0
 42
0.000001
 43
0.000001
 40
0.0
 40
0.0
 40
0.0
 40
1.0
 40
1.0
 40
2.0
 40
2.0
 40
3.0
 40
3.0
 40
4.0
 40
4.0
 40
5.0
 40
5.0
 40
6.0
 40
6.0
 40
7.0
 40
7.0
 40
8.0
 40
8.0
 40
9.0
 40
9.0
 40
10.0
 40
10.0
 40
11.0
 40
11.0
 40
12.0
 40
12.0
 40
12.0
 10
2491.620248831443
 20
-1633.8370930344136
 30
0.0
 10
2488.2673696675056
 20
-1665.3035589718197
 30
0.0
 10
2481.3221162583677
 20
-1672.3229930224859
 30
0.0
 10
2477.8494895537988
 20
-1675.8327100478191
 30
0.0
 10
2474.3768628492294
 20
-1679.3424270731521
 30
0.0
 10
2460.4863560309532
 20
-1693.3813126841324
 30
0.0
 10
2449.2302604574079
 20
-1697.4961587685516
 30
0.0
 10
2443.6022126706353
 20
-1699.5535818107612
 30
0.0
 10
2437.9741648838626
 20
-1701.6110048529708
 30
0.0
 10
2434.8607808011893
 20
-1697.0120607741771
 30
0.0
 10
2431.7473967185165
 20
-1692.4131166953835
 30
0.0
 10
2453.7805977030785
 20
-1685.1516205152941
 30
0.0
 10
2460.0073745307182
 20
-1678.8583290787776
 30
0.0
 10
2463.120762944538
 20
-1675.7116833605194
 30
0.0
 10
2466.2341513583574
 20
-1672.5650376422611
 30
0.0
 10
2479.6456680141059
 20
-1659.0102587804793
 30
0.0
 10
2480.6036396768686
 20
-1642.7929278174017
 30
0.0
 10
2481.0826255082502
 20
-1634.684262335863
 30
0.0
 10
2481.5616113396318
 20
-1626.5755968543242
 30
0.0
 10
2486.5909300855374
 20
-1628.269944212047
 30
0.0
 10
2491.620248831443
 20
-1629.9642915697698
 30
0.0
 10
2495.9310909958499
 20
-1631.4165943077171
 30
0.0
 10
2493.7756699136467
 20
-1632.6268436710652
 30
0.0
 10
2492.6979593725446
 20
-1633.2319683527394
 30
0.0
 10
2491.620248831443
 20
-1633.8370930344136
 30
0.0
  0
SPLINE
  5
CD
100
AcDbEntity
  8
一般
370
               9
  6
Continuous
 62
               7
100
AcDbSpline
210
0.0
220
0.0
230
1.0
 70
               9
 71
               2
 72
              16
 73
              13
 74
               0
 42
0.000001
 43
0.000001
 40
0.0
 40
0.0
 40
0.0
 40
1.0
 40
1.0
 40
2.0
 40
2.0
 40
3.0
 40
3.0
 40
4.0
 40
4.0
 40
5.0
 40
5.0
 40
6.0
 40
6.0
 40
6.0
 10
2450.9067087016697
 20
-1651.2646733608392
 30
0.0
 10
2445.158913374265
 20
-1638.1939837386078
 30
0.0
 10
2442.2850157105631
 20
-1633.8370930344136
 30
0.0
 10
2440.848066878712
 20
-1631.6586476823163
 30
0.0
 10
2439.4111180468608
 20
-1629.4802023302191
 30
0.0
 10
2443.9614552925314
 20
-1627.0597036035226
 30
0.0
 10
2448.5117925382019
 20
-1624.6392048768262
 30
0.0
 10
2455.6965410286043
 20
-1633.8370930344136
 30
0.0
 10
2458.330943611043
 20
-1640.1303844709298
 30
0.0
 10
2459.6481449022622
 20
-1643.2770301891881
 30
0.0
 10
2460.9653461934809
 20
-1646.4236759074463
 30
0.0
 10
2455.9360274475753
 20
-1648.8441746341427
 30
0.0
 10
2450.9067087016697
 20
-1651.2646733608392
 30
0.0
  0
SPLINE
  5
CE
100
AcDbEntity
  8
一般
370
               9
  6
Continuous
 62
               7
100
AcDbSpline
210
0.0
220
0.0
230
1.0
 70
               9
 71
               2
 72
              16
 73
              13
 74
               0
 42
0.000001
 43
0.000001
 40
0.0
 40
0.0
 40
0.0
 40
1.0
 40
1.0
 40
2.0
 40
2.0
 40
3.0
 40
3.0
 40
4.0
 40
4.0
 40
5.0
 40
5.0
 40
6.0
 40
6.0
 40
6.0
 10
2426.4785742290537
 20
-1658.5261520312808
 30
0.0
 10
2420.7307789016495
 20
-1644.971373169499
 30
0.0
 10
2417.6173948189762
 20
-1640.3724290907053
 30
0.0
 10
2416.0607027776396
 20
-1638.0729570513085
 30
0.0
 10
2414.5040107363029
 20
-1635.7734850119116
 30
0.0
 10
2419.2938344009444
 20
-1633.3529950400391
 30
0.0
 10
2424.0836580655864
 20
-1630.9325050681666
 30
0.0
 10
2430.7894163934607
 20
-1640.1303757161061
 30
0.0
 10
2433.4238276381921
 20
-1646.6657205272218
 30
0.0
 10
2434.7410332605577
 20
-1649.9333929327795
 30
0.0
 10
2436.0582388829234
 20
-1653.2010653383375
 30
0.0
 10
2431.2684065559888
 20
-1655.8636086848092
 30
0.0
 10
2426.4785742290537
 20
-1658.5261520312808
 30
0.0
  0
SPLINE
  5
CF
100
AcDbEntity
  8
一般
370
               9
  6
Continuous
 62
               7
100
AcDbSpline
210
0.0
220
0.0
230
1.0
 70
               9
 71
               2
 72
              36
 73
              33
 74
               0
 42
0.000001
 43
0.000001
 40
0.0
 40
0.0
 40
0.0
 40
1.0
 40
1.0
 40
2.0
 40
2.0
 40
3.0
 40
3.0
 40
4.0
 40
4.0
 40
5.0
 40
5.0
 40
6.0
 40
6.0
 40
7.0
 40
7.0
 40
8.0
 40
8.0
 40
9.0
 40
9.0
 40
10.0
 40
10.0
 40
11.0
 40
11.0
 40
12.0
 40
12.0
 40
13.0
 40
13.0
 40
14.0
 40
14.0
 40
15.0
 40
15.0
 40
16.0
 40
16.0
 40
16.0
 10
2620.0091829968242
 20
-1614.4731207304897
 30
0.0
 10
2614.2613876694195
 20
-1614.4731207304897
 30
0.0
 10
2612.3454530061867
 20
-1612.5367199981677
 30
0.0
 10
2611.3874856745706
 20
-1611.5685196320067
 30
0.0
 10
2610.4295183429545
 20
-1610.6003192658457
 30
0.0
 10
2606.5976663410756
 20
-1606.7275353108498
 30
0.0
 10
2606.5976663410756
 20
-1603.8229385897787
 30
0.0
 10
2606.5976663410756
 20
-1602.3706402292432
 30
0.0
 10
2606.5976663410756
 20
-1600.918341868708
 30
0.0
 10
2606.5976663410756
 20
-1595.109148426566
 30
0.0
 10
2608.5135923420148
 20
-1593.172747694244
 30
0.0
 10
2609.4715553424849
 20
-1592.204547328083
 30
0.0
 10
2610.4295183429545
 20
-1591.236346961922
 30
0.0
 10
2614.2613876694195
 20
-1587.3635454972782
 30
0.0
 10
2617.1352853331218
 20
-1587.3635454972782
 30
0.0
 10
2618.572234164973
 20
-1587.3635454972782
 30
0.0
 10
2620.0091829968242
 20
-1587.3635454972782
 30
0.0
 10
2625.7569783242288
 20
-1587.3635454972782
 30
0.0
 10
2627.672904325168
 20
-1589.2999462296
 30
0.0
 10
2628.6308673256376
 20
-1590.268146595761
 30
0.0
 10
2629.5888303261072
 20
-1591.236346961922
 30
0.0
 10
2633.4206996525727
 20
-1595.109148426566
 30
0.0
 10
2633.4206996525727
 20
-1598.0137451476371
 30
0.0
 10
2633.4206996525727
 20
-1599.4660435081726
 30
0.0
 10
2633.4206996525727
 20
-1600.918341868708
 30
0.0
 10
2633.4206996525727
 20
-1606.7275353108498
 30
0.0
 10
2631.5047649893399
 20
-1608.6639272883478
 30
0.0
 10
2630.5467976577238
 20
-1609.6321232770968
 30
0.0
 10
2629.5888303261072
 20
-1610.6003192658457
 30
0.0
 10
2625.7569783242288
 20
-1614.4731207304897
 30
0.0
 10
2622.8830806605265
 20
-1614.4731207304897
 30
0.0
 10
2621.4461318286753
 20
-1614.4731207304897
 30
0.0
 10
2620.0091829968242
 20
-1614.4731207304897
 30
0.0
  0
SPLINE
  5
D0
100
AcDbEntity
  8
一般
370
               9
  6
Continuous
 62
               7
100
AcDbSpline
210
0.0
220
0.0
230
1.0
 70
               9
 71
               2
 72
              36
 73
              33
 74
               0
 42
0.000001
 43
0.000001
 40
0.0
 40
0.0
 40
0.0
 40
1.0
 40
1.0
 40
2.0
 40
2.0
 40
3.0
 40
3.0
 40
4.0
 40
4.0
 40
5.0
 40
5.0
 40
6.0
 40
6.0
 40
7.0
 40
7.0
 40
8.0
 40
8.0
 40
9.0
 40
9.0
 40
10.0
 40
10.0
 40
11.0
 40
11.0
 40
12.0
 40
12.0
 40
13.0
 40
13.0
 40
14.0
 40
14.0
 40
15.0
 40
15.0
 40
16.0
 40
16.0
 40
16.0
 10
2620.0091829968242
 20
-1609.6321232770968
 30
0.0
 10
2623.841034998703
 20
-1609.6321232770968
 30
0.0
 10
2625.0384930804366
 20
-1608.4218739137486
 30
0.0
 10
2625.6372221213032
 20
-1607.8167492320745
 30
0.0
 10
2626.2359511621703
 20
-1607.2116245504005
 30
0.0
 10
2628.6308673256381
 20
-1604.7911258237039
 30
0.0
 10
2628.6308673256381
 20
-1602.854733846206
 30
0.0
 10
2628.6308673256381
 20
-1601.8865378574569
 30
0.0
 10
2628.6308673256381
 20
-1600.918341868708
 30
0.0
 10
2628.6308673256381
 20
-1597.045540404064
 30
0.0
 10
2627.433409243904
 20
-1595.8352910407159
 30
0.0
 10
2626.8346802030374
 20
-1595.2301663590417
 30
0.0
 10
2626.2359511621703
 20
-1594.6250416773676
 30
0.0
 10
2623.841034998703
 20
-1592.2045429506711
 30
0.0
 10
2621.9251089977633
 20
-1592.2045429506711
 30
0.0
 10
2620.9671459972938
 20
-1592.2045429506711
 30
0.0
 10
2620.0091829968242
 20
-1592.2045429506711
 30
0.0
 10
2616.1773136703591
 20
-1592.2045429506711
 30
0.0
 10
2614.9798555886255
 20
-1593.4147923140192
 30
0.0
 10
2614.3811265477584
 20
-1594.0199169956934
 30
0.0
 10
2613.7823975068914
 20
-1594.6250416773676
 30
0.0
 10
2611.387481343424
 20
-1597.045540404064
 30
0.0
 10
2611.387481343424
 20
-1598.9819411363858
 30
0.0
 10
2611.387481343424
 20
-1599.950141502547
 30
0.0
 10
2611.387481343424
 20
-1600.918341868708
 30
0.0
 10
2611.387481343424
 20
-1604.7911258237039
 30
0.0
 10
2612.5849394251577
 20
-1606.0013751870522
 30
0.0
 10
2613.1836684660248
 20
-1606.6064998687264
 30
0.0
 10
2613.7823975068914
 20
-1607.2116245504005
 30
0.0
 10
2616.1773136703591
 20
-1609.6321232770968
 30
0.0
 10
2618.0932483335919
 20
-1609.6321232770968
 30
0.0
 10
2619.051215665208
 20
-1609.6321232770968
 30
0.0
 10
2620.0091829968242
 20
-1609.6321232770968
 30
0.0
  0
SPLINE
  5
D1
100
AcDbEntity
  8
一般
370
               9
  6
Continuous
 62
               7
100
AcDbSpline
210
0.0
220
0.0
230
1.0
 70
               9
 71
               2
 72
              22
 73
              19
 74
               0
 42
0.000001
 43
0.000001
 40
0.0
 40
0.0
 40
0.0
 40
1.0
 40
1.0
 40
2.0
 40
2.0
 40
3.0
 40
3.0
 40
4.0
 40
4.0
 40
5.0
 40
5.0
 40
6.0
 40
6.0
 40
7.0
 40
7.0
 40
8.0
 40
8.0
 40
9.0
 40
9.0
 40
9.0
 10
2534.2712432482845
 20
-1621.5732479941796
 30
0.0
 10
2534.2712432482845
 20
-1615.8447390102374
 30
0.0
 10
2534.2712432482845
 20
-1610.1162300262954
 30
0.0
 10
2569.7159782131812
 20
-1610.1162300262954
 30
0.0
 10
2605.1607131780779
 20
-1610.1162300262954
 30
0.0
 10
2611.3874900057172
 20
-1614.7151741050889
 30
0.0
 10
2617.6142668333569
 20
-1619.3141181838826
 30
0.0
 10
2615.2193506698895
 20
-1677.8901418448527
 30
0.0
 10
2583.6064850314579
 20
-1686.8459766278409
 30
0.0
 10
2567.800052212242
 20
-1691.3238940193351
 30
0.0
 10
2551.9936193930262
 20
-1695.801811410829
 30
0.0
 10
2547.6827685663261
 20
-1690.4767159630615
 30
0.0
 10
2543.371917739626
 20
-1685.1516205152941
 30
0.0
 10
2603.2447871771383
 20
-1671.2920337003131
 30
0.0
 10
2604.6817316778433
 20
-1646.4326408472464
 30
0.0
 10
2605.4002039281954
 20
-1634.002944420713
 30
0.0
 10
2606.1186761785475
 20
-1621.5732479941796
 30
0.0
 10
2570.1949597134162
 20
-1621.5732479941796
 30
0.0
 10
2534.2712432482845
 20
-1621.5732479941796
 30
0.0
  0
SPLINE
  5
D2
100
AcDbEntity
  8
一般
370
               9
  6
Continuous
 62
               7
100
AcDbSpline
210
0.0
220
0.0
230
1.0
 70
               9
 71
               2
 72
              20
 73
              17
 74
               0
 42
0.000001
 43
0.000001
 40
0.0
 40
0.0
 40
0.0
 40
1.0
 40
1.0
 40
2.0
 40
2.0
 40
3.0
 40
3.0
 40
4.0
 40
4.0
 40
5.0
 40
5.0
 40
6.0
 40
6.0
 40
7.0
 40
7.0
 40
8.0
 40
8.0
 40
8.0
 10
1687.6999455864927
 20
-1785.3595195607356
 30
0.0
 10
1681.4731600965602
 20
-1802.7870998871613
 30
0.0
 10
1675.9648598504198
 20
-1812.2270326645241
 30
0.0
 10
1673.2107097273495
 20
-1816.9469990532054
 30
0.0
 10
1670.4565596042792
 20
-1821.6669654418868
 30
0.0
 10
1671.8935127672769
 20
-1825.0556601573321
 30
0.0
 10
1670.6960546855432
 20
-1824.8136155375569
 30
0.0
 10
1670.0973256446764
 20
-1824.6925932276695
 30
0.0
 10
1669.4985966038096
 20
-1824.5715709177819
 30
0.0
 10
1663.9902876953759
 20
-1820.6987782079618
 30
0.0
 10
1658.4819787869421
 20
-1816.8259854981418
 30
0.0
 10
1670.9355324422208
 20
-1798.9142984225175
 30
0.0
 10
1674.527906687422
 20
-1789.7164102649299
 30
0.0
 10
1676.3240938100225
 20
-1785.1174661861364
 30
0.0
 10
1678.1202809326232
 20
-1780.5185221073427
 30
0.0
 10
1682.9101132595579
 20
-1782.9390208340392
 30
0.0
 10
1687.6999455864927
 20
-1785.3595195607356
 30
0.0
  0
SPLINE
  5
D3
100
AcDbEntity
  8
一般
370
               9
  6
Continuous
 62
               7
100
AcDbSpline
210
0.0
220
0.0
230
1.0
 70
               9
 71
               2
 72
              58
 73
              55
 74
               0
 42
0.000001
 43
0.000001
 40
0.0
 40
0.0
 40
0.0
 40
1.0
 40
1.0
 40
2.0
 40
2.0
 40
3.0
 40
3.0
 40
4.0
 40
4.0
 40
5.0
 40
5.0
 40
6.0
 40
6.0
 40
7.0
 40
7.0
 40
8.0
 40
8.0
 40
9.0
 40
9.0
 40
10.0
 40
10.0
 40
11.0
 40
11.0
 40
12.0
 40
12.0
 40
13.0
 40
13.0
 40
14.0
 40
14.0
 40
15.0
 40
15.0
 40
16.0
 40
16.0
 40
17.0
 40
17.0
 40
18.0
 40
18.0
 40
19.0
 40
19.0
 40
20.0
 40
20.0
 40
21.0
 40
21.0
 40
22.0
 40
22.0
 40
23.0
 40
23.0
 40
24.0
 40
24.0
 40
25.0
 40
25.0
 40
26.0
 40
26.0
 40
27.0
 40
27.0
 40
27.0
 10
1765.2951565195744
 20
-1826.0238561460812
 30
0.0
 10
1734.6402538816124
 20
-1810.5326853068013
 30
0.0
 10
1729.131953635472
 20
-1797.9461024337684
 30
0.0
 10
1726.3778035124017
 20
-1791.6528109972519
 30
0.0
 10
1723.6236533893314
 20
-1785.3595195607356
 30
0.0
 10
1720.2707742253942
 20
-1810.0485785576027
 30
0.0
 10
1703.0273882431807
 20
-1819.2464667151903
 30
0.0
 10
1694.4056952520739
 20
-1823.845410793984
 30
0.0
 10
1685.7840022609671
 20
-1828.4443548727777
 30
0.0
 10
1683.1495996785288
 20
-1822.6351701854596
 30
0.0
 10
1680.5151970960906
 20
-1816.8259854981418
 30
0.0
 10
1711.6490898965806
 20
-1801.316867269614
 30
0.0
 10
1713.0860343972852
 20
-1789.9315688201293
 30
0.0
 10
1713.8045066476375
 20
-1784.238919595387
 30
0.0
 10
1714.5229788979898
 20
-1778.5462703706446
 30
0.0
 10
1700.3929856607424
 20
-1778.5462703706446
 30
0.0
 10
1686.262992423495
 20
-1778.5462703706446
 30
0.0
 10
1686.262992423495
 20
-1773.9652561714511
 30
0.0
 10
1686.262992423495
 20
-1769.3842419722573
 30
0.0
 10
1700.8010056554176
 20
-1769.3842419722573
 30
0.0
 10
1715.33901888734
 20
-1769.3842419722573
 30
0.0
 10
1715.33901888734
 20
-1757.9899785829728
 30
0.0
 10
1715.33901888734
 20
-1746.5957151936882
 30
0.0
 10
1705.8303244013232
 20
-1746.5957151936882
 30
0.0
 10
1696.3216299153064
 20
-1746.5957151936882
 30
0.0
 10
1696.3216299153064
 20
-1742.0147009944944
 30
0.0
 10
1696.3216299153064
 20
-1737.4336867953007
 30
0.0
 10
1705.8303244013232
 20
-1737.4336867953007
 30
0.0
 10
1715.33901888734
 20
-1737.4336867953007
 30
0.0
 10
1715.33901888734
 20
-1727.5096472687396
 30
0.0
 10
1715.33901888734
 20
-1717.5856077421784
 30
0.0
 10
1720.1998127198344
 20
-1717.5856077421784
 30
0.0
 10
1725.0606065523291
 20
-1717.5856077421784
 30
0.0
 10
1728.8924585542077
 20
-1718.0697144913768
 30
0.0
 10
1727.2160189722392
 20
-1719.2799550999011
 30
0.0
 10
1726.3777991812549
 20
-1719.8850754041632
 30
0.0
 10
1725.5395793902708
 20
-1720.4901957084253
 30
0.0
 10
1725.5395793902708
 20
-1728.961941251863
 30
0.0
 10
1725.5395793902708
 20
-1737.4336867953007
 30
0.0
 10
1739.1905911272834
 20
-1737.4336867953007
 30
0.0
 10
1752.8416028642957
 20
-1737.4336867953007
 30
0.0
 10
1752.8416028642957
 20
-1753.408964383779
 30
0.0
 10
1752.8416028642957
 20
-1769.3842419722573
 30
0.0
 10
1759.7868562734338
 20
-1769.3842419722573
 30
0.0
 10
1766.7321096825722
 20
-1769.3842419722573
 30
0.0
 10
1766.7321096825722
 20
-1773.9652561714511
 30
0.0
 10
1766.7321096825722
 20
-1778.5462703706446
 30
0.0
 10
1748.5307606998888
 20
-1778.5462703706446
 30
0.0
 10
1730.3294117172054
 20
-1778.5462703706446
 30
0.0
 10
1740.8670393715449
 20
-1800.8327605204154
 30
0.0
 10
1755.2365276900562
 20
-1807.1350168967317
 30
0.0
 10
1762.4212718493118
 20
-1810.28614508489
 30
0.0
 10
1769.6060160085676
 20
-1813.4372732730483
 30
0.0
 10
1767.450586264071
 20
-1819.7305647095648
 30
0.0
 10
1765.2951565195744
 20
-1826.0238561460812
 30
0.0
  0
LWPOLYLINE
  5
D4
100
AcDbEntity
  8
一般
370
               9
  6
Continuous
 62
               7
100
AcDbPolyline
 90
        4
 70
             129
 10
1725.5395793902708
 20
-1746.5957151936882
 10
1725.5395793902708
 20
-1769.3842419722573
 10
1742.641042361365
 20
-1769.3842419722573
 10
1742.641042361365
 20
-1746.5957151936882
  0
SPLINE
  5
D5
100
AcDbEntity
  8
一般
370
               9
  6
Continuous
 62
               7
100
AcDbSpline
210
0.0
220
0.0
230
1.0
 70
               9
 71
               2
 72
              16
 73
              13
 74
               0
 42
0.000001
 43
0.000001
 40
0.0
 40
0.0
 40
0.0
 40
1.0
 40
1.0
 40
2.0
 40
2.0
 40
3.0
 40
3.0
 40
4.0
 40
4.0
 40
5.0
 40
5.0
 40
6.0
 40
6.0
 40
6.0
 10
1677.6413080946816
 20
-1771.8047406989538
 30
0.0
 10
1669.4985966038096
 20
-1763.0909417809169
 30
0.0
 10
1665.1877457771095
 20
-1760.9124964288198
 30
0.0
 10
1663.0323203637595
 20
-1759.823273752771
 30
0.0
 10
1660.8768949504097
 20
-1758.7340510767224
 30
0.0
 10
1664.4692691956107
 20
-1753.6510090035542
 30
0.0
 10
1668.0616434408116
 20
-1748.5679669303861
 30
0.0
 10
1676.6833277696255
 20
-1751.9566616458317
 30
0.0
 10
1681.2336650152963
 20
-1756.7976590992246
 30
0.0
 10
1683.5088336381318
 20
-1759.218157825921
 30
0.0
 10
1685.7840022609671
 20
-1761.6386565526175
 30
0.0
 10
1681.7126551778242
 20
-1766.7216986257856
 30
0.0
 10
1677.6413080946816
 20
-1771.8047406989538
 30
0.0
  0
SPLINE
  5
D6
100
AcDbEntity
  8
一般
370
               9
  6
Continuous
 62
               7
100
AcDbSpline
210
0.0
220
0.0
230
1.0
 70
               9
 71
               2
 72
              16
 73
              13
 74
               0
 42
0.000001
 43
0.000001
 40
0.0
 40
0.0
 40
0.0
 40
1.0
 40
1.0
 40
2.0
 40
2.0
 40
3.0
 40
3.0
 40
4.0
 40
4.0
 40
5.0
 40
5.0
 40
6.0
 40
6.0
 40
6.0
 10
1684.3470664225558
 20
-1744.6951654657421
 30
0.0
 10
1675.7253647691557
 20
-1735.4972773081547
 30
0.0
 10
1671.6540090237197
 20
-1733.0767873362822
 30
0.0
 10
1669.6183311510017
 20
-1731.866542350346
 30
0.0
 10
1667.5826532782839
 20
-1730.6562973644097
 30
0.0
 10
1671.414522604749
 20
-1726.057353285616
 30
0.0
 10
1675.246391931214
 20
-1721.4584092068224
 30
0.0
 10
1684.3470664225558
 20
-1725.8152999110168
 30
0.0
 10
1688.4184135056985
 20
-1730.1721906152111
 30
0.0
 10
1690.4540870472697
 20
-1732.3506359673083
 30
0.0
 10
1692.4897605888411
 20
-1734.5290813194056
 30
0.0
 10
1688.4184135056985
 20
-1739.6121233925737
 30
0.0
 10
1684.3470664225558
 20
-1744.6951654657421
 30
0.0
  0
SPLINE
  5
D7
100
AcDbEntity
  8
一般
370
               9
  6
Continuous
 62
               7
100
AcDbSpline
210
0.0
220
0.0
230
1.0
 70
               9
 71
               2
 72
             104
 73
             101
 74
               0
 42
0.000001
 43
0.000001
 40
0.0
 40
0.0
 40
0.0
 40
1.0
 40
1.0
 40
2.0
 40
2.0
 40
3.0
 40
3.0
 40
4.0
 40
4.0
 40
5.0
 40
5.0
 40
6.0
 40
6.0
 40
7.0
 40
7.0
 40
8.0
 40
8.0
 40
9.0
 40
9.0
 40
10.0
 40
10.0
 40
11.0
 40
11.0
 40
12.0
 40
12.0
 40
13.0
 40
13.0
 40
14.0
 40
14.0
 40
15.0
 40
15.0
 40
16.0
 40
16.0
 40
17.0
 40
17.0
 40
18.0
 40
18.0
 40
19.0
 40
19.0
 40
20.0
 40
20.0
 40
21.0
 40
21.0
 40
22.0
 40
22.0
 40
23.0
 40
23.0
 40
24.0
 40
24.0
 40
25.0
 40
25.0
 40
26.0
 40
26.0
 40
27.0
 40
27.0
 40
28.0
 40
28.0
 40
29.0
 40
29.0
 40
30.0
 40
30.0
 40
31.0
 40
31.0
 40
32.0
 40
32.0
 40
33.0
 40
33.0
 40
34.0
 40
34.0
 40
35.0
 40
35.0
 40
36.0
 40
36.0
 40
37.0
 40
37.0
 40
38.0
 40
38.0
 40
39.0
 40
39.0
 40
40.0
 40
40.0
 40
41.0
 40
41.0
 40
42.0
 40
42.0
 40
43.0
 40
43.0
 40
44.0
 40
44.0
 40
45.0
 40
45.0
 40
46.0
 40
46.0
 40
47.0
 40
47.0
 40
48.0
 40
48.0
 40
49.0
 40
49.0
 40
50.0
 40
50.0
 40
50.0
 10
1890.8102016835464
 20
-1758.2499618371719
 30
0.0
 10
1890.8102016835464
 20
-1762.8309760363657
 30
0.0
 10
1890.8102016835464
 20
-1767.4119902355594
 30
0.0
 10
1883.1464716929095
 20
-1767.4119902355594
 30
0.0
 10
1875.4827417022725
 20
-1767.4119902355594
 30
0.0
 10
1881.230537029677
 20
-1775.1755055347992
 30
0.0
 10
1887.4573138573164
 20
-1779.0572631844191
 30
0.0
 10
1890.570702271136
 20
-1780.998142009229
 30
0.0
 10
1893.6840906849557
 20
-1782.9390208340392
 30
0.0
 10
1891.2891831837815
 20
-1787.7800182874321
 30
0.0
 10
1888.894275682607
 20
-1792.6210157408252
 30
0.0
 10
1883.6254531931443
 20
-1789.2323210253796
 30
0.0
 10
1881.7095271922049
 20
-1787.5379736676568
 30
0.0
 10
1880.7515641917353
 20
-1786.6907999887953
 30
0.0
 10
1879.7936011912655
 20
-1785.8436263099341
 30
0.0
 10
1878.3566480282677
 20
-1801.5768505238129
 30
0.0
 10
1876.91969486527
 20
-1817.310074737692
 30
0.0
 10
1875.9617318648002
 20
-1826.34659397888
 30
0.0
 10
1872.3693576195992
 20
-1826.34659397888
 30
0.0
 10
1870.5731704969987
 20
-1826.34659397888
 30
0.0
 10
1868.7769833743982
 20
-1826.34659397888
 30
0.0
 10
1863.7476646284924
 20
-1826.34659397888
 30
0.0
 10
1858.7183458825866
 20
-1826.34659397888
 30
0.0
 10
1857.760382882117
 20
-1820.6180849949378
 30
0.0
 10
1856.8024198816474
 20
-1814.8895760109956
 30
0.0
 10
1860.1552990455846
 20
-1814.8895760109956
 30
0.0
 10
1863.5081782095217
 20
-1814.8895760109956
 30
0.0
 10
1867.3400302114005
 20
-1814.8895760109956
 30
0.0
 10
1867.5795252926644
 20
-1812.9531840334978
 30
0.0
 10
1867.6992728332964
 20
-1811.9849880447487
 30
0.0
 10
1867.8190203739284
 20
-1811.0167920559998
 30
0.0
 10
1868.5374969554273
 20
-1802.2850720131869
 30
0.0
 10
1869.2559735369261
 20
-1793.553351970374
 30
0.0
 10
1862.5502152090519
 20
-1793.553351970374
 30
0.0
 10
1855.8444568811776
 20
-1793.553351970374
 30
0.0
 10
1855.8444568811776
 20
-1816.8080556185419
 30
0.0
 10
1842.911913063371
 20
-1822.3841606258843
 30
0.0
 10
1836.4456411544675
 20
-1825.1722131295555
 30
0.0
 10
1829.9793692455642
 20
-1827.960265633227
 30
0.0
 10
1827.3449666631259
 20
-1823.1192681798341
 30
0.0
 10
1824.7105640806876
 20
-1818.2782707264412
 30
0.0
 10
1845.2003869684986
 20
-1810.9988621763998
 30
0.0
 10
1845.6616280923438
 20
-1802.276107073387
 30
0.0
 10
1845.8922486542663
 20
-1797.9147295218804
 30
0.0
 10
1846.1228692161887
 20
-1793.553351970374
 30
0.0
 10
1839.0090908936395
 20
-1793.553351970374
 30
0.0
 10
1831.89531257109
 20
-1793.553351970374
 30
0.0
 10
1831.89531257109
 20
-1789.6984891401539
 30
0.0
 10
1831.89531257109
 20
-1785.8436263099341
 30
0.0
 10
1828.0634432446248
 20
-1789.2323210253796
 30
0.0
 10
1825.6685270811572
 20
-1791.1687130028774
 30
0.0
 10
1824.4710689994236
 20
-1792.1369089916266
 30
0.0
 10
1823.2736109176899
 20
-1793.1051049803755
 30
0.0
 10
1820.6392083352516
 20
-1788.9902588959562
 30
0.0
 10
1818.0048057528134
 20
-1784.875412811537
 30
0.0
 10
1829.9793692455642
 20
-1776.627808272747
 30
0.0
 10
1832.6137804902955
 20
-1772.0198992541532
 30
0.0
 10
1833.9309861126612
 20
-1769.7159447448562
 30
0.0
 10
1835.2481917350269
 20
-1767.4119902355594
 30
0.0
 10
1828.0634432446248
 20
-1767.4119902355594
 30
0.0
 10
1820.8786947542226
 20
-1767.4119902355594
 30
0.0
 10
1820.8786947542226
 20
-1762.8309760363657
 30
0.0
 10
1820.8786947542226
 20
-1758.2499618371719
 30
0.0
 10
1830.2188643268282
 20
-1758.2499618371719
 30
0.0
 10
1839.5590338994336
 20
-1758.2499618371719
 30
0.0
 10
1841.4749599003731
 20
-1753.8751237437293
 30
0.0
 10
1842.1934364818719
 20
-1751.6877134518322
 30
0.0
 10
1842.5526747726215
 20
-1750.5940083058836
 30
0.0
 10
1842.911913063371
 20
-1749.5003031599351
 30
0.0
 10
1834.0507336532933
 20
-1749.5003031599351
 30
0.0
 10
1825.1895542432158
 20
-1749.5003031599351
 30
0.0
 10
1825.1895542432158
 20
-1744.9192889607414
 30
0.0
 10
1825.1895542432158
 20
-1740.3382747615476
 30
0.0
 10
1835.2481917350269
 20
-1740.3382747615476
 30
0.0
 10
1845.3068292268381
 20
-1740.3382747615476
 30
0.0
 10
1847.7017453903056
 20
-1723.8789079335188
 30
0.0
 10
1847.7017453903056
 20
-1720.0061064688748
 30
0.0
 10
1847.7017453903056
 20
-1718.0697057365528
 30
0.0
 10
1847.7017453903056
 20
-1716.133305004231
 30
0.0
 10
1852.0125875547124
 20
-1716.6174029986055
 30
0.0
 10
1856.3234297191193
 20
-1717.1015009929797
 30
0.0
 10
1860.1552990455843
 20
-1717.5856077421784
 30
0.0
 10
1858.2393643823518
 20
-1719.0379017253019
 30
0.0
 10
1857.2813970507354
 20
-1719.7640487168637
 30
0.0
 10
1856.3234297191193
 20
-1720.4901957084253
 30
0.0
 10
1855.3654667186497
 20
-1728.7198878772638
 30
0.0
 10
1854.6469901371506
 20
-1734.5290813194056
 30
0.0
 10
1854.2877518464013
 20
-1737.4336780404765
 30
0.0
 10
1853.928513555652
 20
-1740.3382747615476
 30
0.0
 10
1870.213936537396
 20
-1740.3382747615476
 30
0.0
 10
1886.4993595191397
 20
-1740.3382747615476
 30
0.0
 10
1886.4993595191397
 20
-1744.9192889607414
 30
0.0
 10
1886.4993595191397
 20
-1749.5003031599351
 30
0.0
 10
1875.9617318648002
 20
-1749.5003031599351
 30
0.0
 10
1865.4241042104609
 20
-1749.5003031599351
 30
0.0
 10
1867.3400302114005
 20
-1753.8751237437293
 30
0.0
 10
1868.5374882931342
 20
-1756.0625427904506
 30
0.0
 10
1869.136217334001
 20
-1757.1562523138114
 30
0.0
 10
1869.7349463748678
 20
-1758.2499618371719
 30
0.0
 10
1880.2725740292071
 20
-1758.2499618371719
 30
0.0
 10
1890.8102016835464
 20
-1758.2499618371719
 30
0.0
  0
SPLINE
  5
D8
100
AcDbEntity
  8
一般
370
               9
  6
Continuous
 62
               7
100
AcDbSpline
210
0.0
220
0.0
230
1.0
 70
               9
 71
               2
 72
              16
 73
              13
 74
               0
 42
0.000001
 43
0.000001
 40
0.0
 40
0.0
 40
0.0
 40
1.0
 40
1.0
 40
2.0
 40
2.0
 40
3.0
 40
3.0
 40
4.0
 40
4.0
 40
5.0
 40
5.0
 40
6.0
 40
6.0
 40
6.0
 10
1860.1552990455843
 20
-1758.2499618371719
 30
0.0
 10
1858.2393730446449
 20
-1754.8433372421264
 30
0.0
 10
1857.5208964631463
 20
-1752.1718202010309
 30
0.0
 10
1857.161658172397
 20
-1750.836061680483
 30
0.0
 10
1856.8024198816474
 20
-1749.5003031599351
 30
0.0
 10
1854.4075037181799
 20
-1749.5003031599351
 30
0.0
 10
1852.0125875547124
 20
-1749.5003031599351
 30
0.0
 10
1850.5756343917149
 20
-1754.8433372421264
 30
0.0
 10
1849.8571664725091
 20
-1756.5466495396493
 30
0.0
 10
1849.4979325129063
 20
-1757.3983056884106
 30
0.0
 10
1849.1386985533036
 20
-1758.2499618371719
 30
0.0
 10
1854.646998799444
 20
-1758.2499618371719
 30
0.0
 10
1860.1552990455843
 20
-1758.2499618371719
 30
0.0
  0
SPLINE
  5
D9
100
AcDbEntity
  8
一般
370
               9
  6
Continuous
 62
               7
100
AcDbSpline
210
0.0
220
0.0
230
1.0
 70
               9
 71
               2
 72
              28
 73
              25
 74
               0
 42
0.000001
 43
0.000001
 40
0.0
 40
0.0
 40
0.0
 40
1.0
 40
1.0
 40
2.0
 40
2.0
 40
3.0
 40
3.0
 40
4.0
 40
4.0
 40
5.0
 40
5.0
 40
6.0
 40
6.0
 40
7.0
 40
7.0
 40
8.0
 40
8.0
 40
9.0
 40
9.0
 40
10.0
 40
10.0
 40
11.0
 40
11.0
 40
12.0
 40
12.0
 40
12.0
 10
1856.8024198816474
 20
-1784.3913235719867
 30
0.0
 10
1867.3400388736936
 20
-1784.3913235719867
 30
0.0
 10
1877.8776578657398
 20
-1784.3913235719867
 30
0.0
 10
1870.2139365373957
 20
-1776.627808272747
 30
0.0
 10
1867.5795339549575
 20
-1772.0198992541532
 30
0.0
 10
1866.2623326637383
 20
-1769.7159447448562
 30
0.0
 10
1864.9451313725192
 20
-1767.4119902355594
 30
0.0
 10
1855.1259802996788
 20
-1767.4119902355594
 30
0.0
 10
1845.3068292268381
 20
-1767.4119902355594
 30
0.0
 10
1840.0380240619618
 20
-1777.5960042614956
 30
0.0
 10
1836.6851362357315
 20
-1780.9936639167411
 30
0.0
 10
1835.0086923226163
 20
-1782.6924937443639
 30
0.0
 10
1833.3322484095013
 20
-1784.3913235719867
 30
0.0
 10
1839.9670538941091
 20
-1784.3913235719867
 30
0.0
 10
1846.6018593787167
 20
-1784.3913235719867
 30
0.0
 10
1846.6018593787167
 20
-1777.855978760871
 30
0.0
 10
1846.6018593787167
 20
-1771.3206339497553
 30
0.0
 10
1851.462644548918
 20
-1771.3206339497553
 30
0.0
 10
1856.3234297191193
 20
-1771.3206339497553
 30
0.0
 10
1860.1552990455843
 20
-1771.8047406989538
 30
0.0
 10
1858.4788594636159
 20
-1773.0149900623021
 30
0.0
 10
1857.6406396726316
 20
-1773.620114743976
 30
0.0
 10
1856.8024198816474
 20
-1774.2252394256502
 30
0.0
 10
1856.8024198816474
 20
-1779.3082814988184
 30
0.0
 10
1856.8024198816474
 20
-1784.3913235719867
 30
0.0
  0
SPLINE
  5
DA
100
AcDbEntity
  8
一般
370
               9
  6
Continuous
 62
               7
100
AcDbSpline
210
0.0
220
0.0
230
1.0
 70
               9
 71
               2
 72
              20
 73
              17
 74
               0
 42
0.000001
 43
0.000001
 40
0.0
 40
0.0
 40
0.0
 40
1.0
 40
1.0
 40
2.0
 40
2.0
 40
3.0
 40
3.0
 40
4.0
 40
4.0
 40
5.0
 40
5.0
 40
6.0
 40
6.0
 40
7.0
 40
7.0
 40
8.0
 40
8.0
 40
8.0
 10
1862.5502152090519
 20
-1734.5290813194056
 30
0.0
 10
1866.8610573734586
 20
-1727.2676026489644
 30
0.0
 10
1868.5374969554273
 20
-1723.3948011843204
 30
0.0
 10
1869.3757167464114
 20
-1721.4584004519984
 30
0.0
 10
1870.2139365373957
 20
-1719.5219997196762
 30
0.0
 10
1874.5247787018025
 20
-1721.4584004519984
 30
0.0
 10
1878.8356208662094
 20
-1723.3948011843204
 30
0.0
 10
1882.1885000301468
 20
-1725.8152999110168
 30
0.0
 10
1880.0330789479431
 20
-1726.2993979053913
 30
0.0
 10
1878.9553684068414
 20
-1726.5414469025786
 30
0.0
 10
1877.8776578657398
 20
-1726.7834958997657
 30
0.0
 10
1873.087825538805
 20
-1735.4972773081547
 30
0.0
 10
1871.6508810381004
 20
-1737.1916246658775
 30
0.0
 10
1870.932408787748
 20
-1738.038798344739
 30
0.0
 10
1870.2139365373957
 20
-1738.8859720236003
 30
0.0
 10
1866.3820758732238
 20
-1736.7075266715028
 30
0.0
 10
1862.5502152090519
 20
-1734.5290813194056
 30
0.0
  0
SPLINE
  5
DB
100
AcDbEntity
  8
一般
370
               9
  6
Continuous
 62
               7
100
AcDbSpline
210
0.0
220
0.0
230
1.0
 70
               9
 71
               2
 72
              40
 73
              37
 74
               0
 42
0.000001
 43
0.000001
 40
0.0
 40
0.0
 40
0.0
 40
1.0
 40
1.0
 40
2.0
 40
2.0
 40
3.0
 40
3.0
 40
4.0
 40
4.0
 40
5.0
 40
5.0
 40
6.0
 40
6.0
 40
7.0
 40
7.0
 40
8.0
 40
8.0
 40
9.0
 40
9.0
 40
10.0
 40
10.0
 40
11.0
 40
11.0
 40
12.0
 40
12.0
 40
13.0
 40
13.0
 40
14.0
 40
14.0
 40
15.0
 40
15.0
 40
16.0
 40
16.0
 40
17.0
 40
17.0
 40
18.0
 40
18.0
 40
18.0
 10
1816.0888797518739
 20
-1820.2146802135874
 30
0.0
 10
1816.0888797518739
 20
-1826.9562098852782
 30
0.0
 10
1813.2149820881718
 20
-1826.9562098852782
 30
0.0
 10
1811.7780332563207
 20
-1826.9562098852782
 30
0.0
 10
1810.3410844244695
 20
-1826.9562098852782
 30
0.0
 10
1806.0302335977694
 20
-1826.9562098852782
 30
0.0
 10
1801.7193827710696
 20
-1826.9562098852782
 30
0.0
 10
1800.7614197705998
 20
-1822.3751956860847
 30
0.0
 10
1799.8034567701302
 20
-1817.7941814868909
 30
0.0
 10
1802.9168408528033
 20
-1817.7941814868909
 30
0.0
 10
1806.0302249354763
 20
-1817.7941814868909
 30
0.0
 10
1807.0236860133123
 20
-1817.7941814868909
 30
0.0
 10
1807.0236860133123
 20
-1816.8259767433178
 30
0.0
 10
1807.0236860133123
 20
-1816.3418743715313
 30
0.0
 10
1807.0236860133123
 20
-1815.8577719997447
 30
0.0
 10
1807.0236860133123
 20
-1801.8009652639885
 30
0.0
 10
1807.0236860133123
 20
-1787.7441585282322
 30
0.0
 10
1801.7371318097526
 20
-1787.7441585282322
 30
0.0
 10
1796.4505776061931
 20
-1787.7441585282322
 30
0.0
 10
1796.4505776061931
 20
-1791.3928277430527
 30
0.0
 10
1796.4505776061931
 20
-1795.0414969578735
 30
0.0
 10
1796.4505776061931
 20
-1813.4372732730483
 30
0.0
 10
1791.9002403605223
 20
-1820.2146714587632
 30
0.0
 10
1789.6250717376868
 20
-1823.6033705516206
 30
0.0
 10
1787.3499031148513
 20
-1826.9920696444781
 30
0.0
 10
1783.9970239509141
 20
-1823.1192681798343
 30
0.0
 10
1780.644144786977
 20
-1819.2464667151903
 30
0.0
 10
1787.3853838676312
 20
-1809.0803825688538
 30
0.0
 10
1787.3853838676312
 20
-1800.8506991548395
 30
0.0
 10
1787.3853838676312
 20
-1796.7358574478324
 30
0.0
 10
1787.3853838676312
 20
-1792.6210157408252
 30
0.0
 10
1787.3853838676312
 20
-1757.5238104681985
 30
0.0
 10
1787.3853838676312
 20
-1722.4266051955715
 30
0.0
 10
1801.7371318097526
 20
-1722.4266051955715
 30
0.0
 10
1816.0888797518739
 20
-1722.4266051955715
 30
0.0
 10
1816.0888797518739
 20
-1771.3206427045793
 30
0.0
 10
1816.0888797518739
 20
-1820.2146802135874
 30
0.0
  0
LWPOLYLINE
  5
DC
100
AcDbEntity
  8
一般
370
               9
  6
Continuous
 62
               7
100
AcDbPolyline
 90
        4
 70
             129
 10
1796.4505776061931
 20
-1731.5886335939588
 10
1796.4505776061931
 20
-1750.5043589078839
 10
1807.0236860133123
 20
-1750.5043589078839
 10
1807.0236860133123
 20
-1731.5886335939588
  0
LWPOLYLINE
  5
DD
100
AcDbEntity
  8
一般
370
               9
  6
Continuous
 62
               7
100
AcDbPolyline
 90
        4
 70
             129
 10
1796.4505776061931
 20
-1759.6663873062716
 10
1796.4505776061931
 20
-1778.5821301298447
 10
1807.0236860133123
 20
-1778.5821301298447
 10
1807.0236860133123
 20
-1759.6663873062716
  0
SPLINE
  5
DE
100
AcDbEntity
  8
一般
370
               9
  6
Continuous
 62
               7
100
AcDbSpline
210
0.0
220
0.0
230
1.0
 70
               9
 71
               2
 72
              16
 73
              13
 74
               0
 42
0.000001
 43
0.000001
 40
0.0
 40
0.0
 40
0.0
 40
1.0
 40
1.0
 40
2.0
 40
2.0
 40
3.0
 40
3.0
 40
4.0
 40
4.0
 40
5.0
 40
5.0
 40
6.0
 40
6.0
 40
6.0
 10
1833.8112385720292
 20
-1721.4584092068224
 30
0.0
 10
1840.0380240619618
 20
-1726.7834958997657
 30
0.0
 10
1841.7144636439305
 20
-1729.9301372406121
 30
0.0
 10
1842.5526834349148
 20
-1731.5034579110352
 30
0.0
 10
1843.3909032258989
 20
-1733.0767785814583
 30
0.0
 10
1839.0800523991988
 20
-1735.9813753025292
 30
0.0
 10
1834.7692015724988
 20
-1738.8859720236003
 30
0.0
 10
1830.4583594080921
 20
-1732.5926893419075
 30
0.0
 10
1828.063443244625
 20
-1729.9301459954361
 30
0.0
 10
1826.8659851628913
 20
-1728.5988743222001
 30
0.0
 10
1825.6685270811574
 20
-1727.2676026489644
 30
0.0
 10
1829.7398828265932
 20
-1724.3630059278935
 30
0.0
 10
1833.8112385720292
 20
-1721.4584092068224
 30
0.0
  0
SPLINE
  5
DF
100
AcDbEntity
  8
一般
370
               9
  6
Continuous
 62
               7
100
AcDbSpline
210
0.0
220
0.0
230
1.0
 70
               9
 71
               2
 72
              46
 73
              43
 74
               0
 42
0.000001
 43
0.000001
 40
0.0
 40
0.0
 40
0.0
 40
1.0
 40
1.0
 40
2.0
 40
2.0
 40
3.0
 40
3.0
 40
4.0
 40
4.0
 40
5.0
 40
5.0
 40
6.0
 40
6.0
 40
7.0
 40
7.0
 40
8.0
 40
8.0
 40
9.0
 40
9.0
 40
10.0
 40
10.0
 40
11.0
 40
11.0
 40
12.0
 40
12.0
 40
13.0
 40
13.0
 40
14.0
 40
14.0
 40
15.0
 40
15.0
 40
16.0
 40
16.0
 40
17.0
 40
17.0
 40
18.0
 40
18.0
 40
19.0
 40
19.0
 40
20.0
 40
20.0
 40
21.0
 40
21.0
 40
21.0
 10
1996.5450216907182
 20
-1786.7759625394831
 30
0.0
 10
1981.2885318772969
 20
-1786.7759625394831
 30
0.0
 10
1966.0320420638757
 20
-1786.7759625394831
 30
0.0
 10
1966.0320420638757
 20
-1805.1896687342578
 30
0.0
 10
1966.0320420638757
 20
-1823.6033749290327
 30
0.0
 10
1960.9317618124103
 20
-1823.6033749290327
 30
0.0
 10
1955.8314815609449
 20
-1823.6033749290327
 30
0.0
 10
1955.8314815609449
 20
-1805.1896687342578
 30
0.0
 10
1955.8314815609449
 20
-1786.7759625394831
 30
0.0
 10
1941.7724411669642
 20
-1786.7759625394831
 30
0.0
 10
1927.7134007729833
 20
-1786.7759625394831
 30
0.0
 10
1926.7554377725137
 20
-1811.9670581651487
 30
0.0
 10
1919.8101843633754
 20
-1819.4795639048134
 30
0.0
 10
1916.3375576588064
 20
-1823.2358167746456
 30
0.0
 10
1912.8649309542373
 20
-1826.9920696444781
 30
0.0
 10
1909.0330702900651
 20
-1823.1192681798343
 30
0.0
 10
1905.2012096258932
 20
-1819.2464667151903
 30
0.0
 10
1917.5128402700525
 20
-1804.7234918646595
 30
0.0
 10
1917.5128402700525
 20
-1795.0415057126975
 30
0.0
 10
1917.5128402700525
 20
-1790.2005126367167
 30
0.0
 10
1917.5128402700525
 20
-1785.3595195607356
 30
0.0
 10
1917.5128402700525
 20
-1754.3771603725281
 30
0.0
 10
1917.5128402700525
 20
-1723.3948011843204
 30
0.0
 10
1962.1292112318506
 20
-1723.3948011843204
 30
0.0
 10
2006.7455821936489
 20
-1723.3948011843204
 30
0.0
 10
2006.7455821936489
 20
-1769.6262865920326
 30
0.0
 10
2006.7455821936489
 20
-1815.8577719997447
 30
0.0
 10
2006.7455821936489
 20
-1824.410202001382
 30
0.0
 10
2002.9137128671839
 20
-1824.410202001382
 30
0.0
 10
2000.9977782039514
 20
-1824.410202001382
 30
0.0
 10
1999.0818435407186
 20
-1824.410202001382
 30
0.0
 10
1992.3760852128444
 20
-1824.410202001382
 30
0.0
 10
1985.6703268849703
 20
-1824.410202001382
 30
0.0
 10
1984.4728688032365
 20
-1818.68169301744
 30
0.0
 10
1983.2754107215028
 20
-1812.9531840334978
 30
0.0
 10
1989.2627011301713
 20
-1812.9531840334978
 30
0.0
 10
1995.2499915388398
 20
-1812.9531840334978
 30
0.0
 10
1996.5450216907182
 20
-1812.9531840334978
 30
0.0
 10
1996.5450216907182
 20
-1811.9849880447489
 30
0.0
 10
1996.5450216907182
 20
-1811.5008900503744
 30
0.0
 10
1996.5450216907182
 20
-1811.0167920559998
 30
0.0
 10
1996.5450216907182
 20
-1798.8963772977413
 30
0.0
 10
1996.5450216907182
 20
-1786.7759625394831
 30
0.0
  0
LWPOLYLINE
  5
E0
100
AcDbEntity
  8
一般
370
               9
  6
Continuous
 62
               7
100
AcDbPolyline
 90
        4
 70
             129
 10
1966.0320420638757
 20
-1732.5568295827079
 10
1966.0320420638757
 20
-1750.5043589078839
 10
1996.5450216907182
 20
-1750.5043589078839
 10
1996.5450216907182
 20
-1732.5568295827079
  0
LWPOLYLINE
  5
E1
100
AcDbEntity
  8
一般
370
               9
  6
Continuous
 62
               7
100
AcDbPolyline
 90
        4
 70
             129
 10
1966.0320420638757
 20
-1759.6663873062716
 10
1966.0320420638757
 20
-1777.6139341410958
 10
1996.5450216907182
 20
-1777.6139341410958
 10
1996.5450216907182
 20
-1759.6663873062716
  0
LWPOLYLINE
  5
E2
100
AcDbEntity
  8
一般
370
               9
  6
Continuous
 62
               7
100
AcDbPolyline
 90
        4
 70
             129
 10
1927.7134007729833
 20
-1732.5568295827079
 10
1927.7134007729833
 20
-1750.5043589078839
 10
1955.8314815609449
 20
-1750.5043589078839
 10
1955.8314815609449
 20
-1732.5568295827079
  0
LWPOLYLINE
  5
E3
100
AcDbEntity
  8
一般
370
               9
  6
Continuous
 62
               7
100
AcDbPolyline
 90
        4
 70
             129
 10
1927.7134007729833
 20
-1759.6663873062716
 10
1927.7134007729833
 20
-1777.6139341410958
 10
1955.8314815609449
 20
-1777.6139341410958
 10
1955.8314815609449
 20
-1759.6663873062716
  0
SPLINE
  5
E4
100
AcDbEntity
  8
一般
370
               9
  6
Continuous
 62
               7
100
AcDbSpline
210
0.0
220
0.0
230
1.0
 70
               9
 71
               2
 72
              16
 73
              13
 74
               0
 42
0.000001
 43
0.000001
 40
0.0
 40
0.0
 40
0.0
 40
1.0
 40
1.0
 40
2.0
 40
2.0
 40
3.0
 40
3.0
 40
4.0
 40
4.0
 40
5.0
 40
5.0
 40
6.0
 40
6.0
 40
6.0
 10
2082.4463954119196
 20
-1757.7658550879735
 30
0.0
 10
2078.6145260854546
 20
-1748.0838601811874
 30
0.0
 10
2075.5011420027813
 20
-1744.2110674713676
 30
0.0
 10
2073.9444499614447
 20
-1742.2746711164577
 30
0.0
 10
2072.387757920108
 20
-1740.3382747615476
 30
0.0
 10
2076.4591136655445
 20
-1737.9177760348512
 30
0.0
 10
2080.5304694109805
 20
-1735.4972773081547
 30
0.0
 10
2088.1941907393243
 20
-1744.2110762261916
 30
0.0
 10
2089.6311352400289
 20
-1748.3259223106108
 30
0.0
 10
2090.3496074903815
 20
-1750.3833453528205
 30
0.0
 10
2091.0680797407335
 20
-1752.4407683950301
 30
0.0
 10
2086.7572375763266
 20
-1755.1033117415018
 30
0.0
 10
2082.4463954119196
 20
-1757.7658550879735
 30
0.0
  0
LWPOLYLINE
  5
E5
100
AcDbEntity
  8
一般
370
               9
  6
Continuous
 62
               7
100
AcDbPolyline
 90
        8
 70
             129
 10
2120.623096367106
 20
-1825.0556601573321
 10
2120.623096367106
 20
-1820.1788204543873
 10
2042.690818282616
 20
-1820.1788204543873
 10
2042.690818282616
 20
-1826.0238561460812
 10
2032.4902577796852
 20
-1826.0238561460812
 10
2032.4902577796852
 20
-1721.9424984463728
 10
2130.8236568700372
 20
-1721.9424984463728
 10
2130.8236568700372
 20
-1825.0556601573321
  0
LWPOLYLINE
  5
E6
100
AcDbEntity
  8
一般
370
               9
  6
Continuous
 62
               7
100
AcDbPolyline
 90
        4
 70
             129
 10
2120.623096367106
 20
-1731.1045268447604
 10
2042.690818282616
 20
-1731.1045268447604
 10
2042.690818282616
 20
-1811.0167920559998
 10
2120.623096367106
 20
-1811.0167920559998
  0
SPLINE
  5
E7
100
AcDbEntity
  8
一般
370
               9
  6
Continuous
 62
               7
100
AcDbSpline
210
0.0
220
0.0
230
1.0
 70
               9
 71
               2
 72
              48
 73
              45
 74
               0
 42
0.000001
 43
0.000001
 40
0.0
 40
0.0
 40
0.0
 40
1.0
 40
1.0
 40
2.0
 40
2.0
 40
3.0
 40
3.0
 40
4.0
 40
4.0
 40
5.0
 40
5.0
 40
6.0
 40
6.0
 40
7.0
 40
7.0
 40
8.0
 40
8.0
 40
9.0
 40
9.0
 40
10.0
 40
10.0
 40
11.0
 40
11.0
 40
12.0
 40
12.0
 40
13.0
 40
13.0
 40
14.0
 40
14.0
 40
15.0
 40
15.0
 40
16.0
 40
16.0
 40
17.0
 40
17.0
 40
18.0
 40
18.0
 40
19.0
 40
19.0
 40
20.0
 40
20.0
 40
21.0
 40
21.0
 40
22.0
 40
22.0
 40
22.0
 10
2091.5470699032612
 20
-1780.5185221073427
 30
0.0
 10
2104.0006235585402
 20
-1786.8118222986832
 30
0.0
 10
2109.5089238046808
 20
-1791.1687130028774
 30
0.0
 10
2112.2630739277511
 20
-1793.3471583549747
 30
0.0
 10
2115.0172240508214
 20
-1795.5256037070719
 30
0.0
 10
2111.1853633866494
 20
-1800.1245477858656
 30
0.0
 10
2107.3535027224771
 20
-1804.7234918646595
 30
0.0
 10
2096.8158750681378
 20
-1795.5256037070719
 30
0.0
 10
2090.5890982404981
 20
-1792.3789623662258
 30
0.0
 10
2087.4757098266787
 20
-1790.8056416958027
 30
0.0
 10
2084.3623214128593
 20
-1789.2323210253796
 30
0.0
 10
2073.3457209205781
 20
-1800.3666011604648
 30
0.0
 10
2063.2870834287669
 20
-1804.2393938702849
 30
0.0
 10
2058.2577646828613
 20
-1806.1757902251948
 30
0.0
 10
2053.2284459369557
 20
-1808.1121865801049
 30
0.0
 10
2050.1150531919893
 20
-1803.7552958759104
 30
0.0
 10
2047.0016604470229
 20
-1799.3984051717159
 30
0.0
 10
2066.1609724301761
 20
-1791.6528022424282
 30
0.0
 10
2070.7113096758467
 20
-1787.7800095326081
 30
0.0
 10
2072.9864782986824
 20
-1785.843613177698
 30
0.0
 10
2075.2616469215177
 20
-1783.9072168227881
 30
0.0
 10
2064.2450464292365
 20
-1778.0980233806461
 30
0.0
 10
2057.2997930200982
 20
-1775.1934266595752
 30
0.0
 10
2053.8271663155292
 20
-1773.7411282990397
 30
0.0
 10
2050.3545396109603
 20
-1772.2888299385043
 30
0.0
 10
2053.4679323559267
 20
-1768.4160372286842
 30
0.0
 10
2056.5813251008926
 20
-1764.5432445188644
 30
0.0
 10
2068.0769157557015
 20
-1768.9001352230589
 30
0.0
 10
2075.2616555838104
 20
-1772.2888299385045
 30
0.0
 10
2078.8540254978652
 20
-1773.983177296227
 30
0.0
 10
2082.4463954119196
 20
-1775.6775246539498
 30
0.0
 10
2093.4629959042009
 20
-1762.6068525413664
 30
0.0
 10
2097.7738467309005
 20
-1750.0202696683336
 30
0.0
 10
2099.9292721442507
 20
-1743.7269782318172
 30
0.0
 10
2102.0846975576005
 20
-1737.4336867953007
 30
0.0
 10
2107.3535027224771
 20
-1739.6121321473979
 30
0.0
 10
2112.6223078873536
 20
-1741.7905774994952
 30
0.0
 10
2116.4541772138186
 20
-1742.7587734882441
 30
0.0
 10
2113.8197746313804
 20
-1743.9690228515922
 30
0.0
 10
2112.5025733401617
 20
-1744.5741475332663
 30
0.0
 10
2111.1853720489426
 20
-1745.1792722149405
 30
0.0
 10
2102.0846975576005
 20
-1768.4160459835082
 30
0.0
 10
2096.8158837304309
 20
-1774.4672840454255
 30
0.0
 10
2094.181476816846
 20
-1777.4929030763842
 30
0.0
 10
2091.5470699032612
 20
-1780.5185221073427
 30
0.0
  0
SPLINE
  5
E8
100
AcDbEntity
  8
一般
370
               9
  6
Continuous
 62
               7
100
AcDbSpline
210
0.0
220
0.0
230
1.0
 70
               9
 71
               2
 72
              16
 73
              13
 74
               0
 42
0.000001
 43
0.000001
 40
0.0
 40
0.0
 40
0.0
 40
1.0
 40
1.0
 40
2.0
 40
2.0
 40
3.0
 40
3.0
 40
4.0
 40
4.0
 40
5.0
 40
5.0
 40
6.0
 40
6.0
 40
6.0
 10
2061.3711574278273
 20
-1740.822381510746
 30
0.0
 10
2067.5979255931734
 20
-1748.0838601811874
 30
0.0
 10
2069.7533466753771
 20
-1752.9248576345803
 30
0.0
 10
2070.8310572164787
 20
-1755.345356361277
 30
0.0
 10
2071.9087677575803
 20
-1757.7658550879735
 30
0.0
 10
2067.5979255931734
 20
-1760.4283984344452
 30
0.0
 10
2063.2870834287669
 20
-1763.0909417809169
 30
0.0
 10
2059.4552141023014
 20
-1753.408964383779
 30
0.0
 10
2056.3418300196286
 20
-1749.5361716739587
 30
0.0
 10
2054.7851379782924
 20
-1747.5997753190488
 30
0.0
 10
2053.2284459369557
 20
-1745.6633789641389
 30
0.0
 10
2057.2998016823913
 20
-1743.2428802374425
 30
0.0
 10
2061.3711574278273
 20
-1740.822381510746
 30
0.0
  0
LWPOLYLINE
  5
E9
100
AcDbEntity
  8
一般
370
               9
  6
Continuous
 62
               7
100
AcDbPolyline
 90
       16
 70
             129
 10
2250.5909067066045
 20
-1824.0874641685832
 10
2240.3903462036742
 20
-1824.0874641685832
 10
2240.3903462036742
 20
-1819.2106069559904
 10
2167.7268732840598
 20
-1819.2106069559904
 10
2167.7268732840598
 20
-1826.0238561460812
 10
2157.5263127811295
 20
-1826.0238561460812
 10
2157.5263127811295
 20
-1749.536162919135
 10
2197.4238129215523
 20
-1749.536162919135
 10
2201.2556649234311
 20
-1733.5250255714568
 10
2152.3994133027859
 20
-1733.5250255714568
 10
2152.3994133027859
 20
-1724.3629971730695
 10
2256.3387020340092
 20
-1724.3629971730695
 10
2256.3387020340092
 20
-1733.5250255714568
 10
2212.2722827402986
 20
-1733.5250255714568
 10
2207.0034602508358
 20
-1749.536162919135
 10
2250.5909067066045
 20
-1749.536162919135
  0
LWPOLYLINE
  5
EA
100
AcDbEntity
  8
一般
370
               9
  6
Continuous
 62
               7
100
AcDbPolyline
 90
        4
 70
             129
 10
2240.3903462036742
 20
-1758.6981913175225
 10
2224.2468462330494
 20
-1758.6981913175225
 10
2224.2468462330494
 20
-1810.0485785576027
 10
2240.3903462036742
 20
-1810.0485785576027
  0
LWPOLYLINE
  5
EB
100
AcDbEntity
  8
一般
370
               9
  6
Continuous
 62
               7
100
AcDbPolyline
 90
        4
 70
             129
 10
2214.0462857301186
 20
-1758.6981913175225
 10
2194.0709337576154
 20
-1758.6981913175225
 10
2194.0709337576154
 20
-1771.3206339497553
 10
2214.0462857301186
 20
-1771.3206339497553
  0
LWPOLYLINE
  5
EC
100
AcDbEntity
  8
一般
370
               9
  6
Continuous
 62
               7
100
AcDbPolyline
 90
        4
 70
             129
 10
2214.0462857301186
 20
-1790.2005170141288
 10
2214.0462857301186
 20
-1779.3351675633942
 10
2194.0709337576154
 20
-1779.3351675633942
 10
2194.0709337576154
 20
-1790.2005170141288
  0
LWPOLYLINE
  5
ED
100
AcDbEntity
  8
一般
370
               9
  6
Continuous
 62
               7
100
AcDbPolyline
 90
        4
 70
             129
 10
2214.0462857301186
 20
-1810.0485785576027
 10
2214.0462857301186
 20
-1798.2150506277676
 10
2194.0709337576154
 20
-1798.2150506277676
 10
2194.0709337576154
 20
-1810.0485785576027
  0
LWPOLYLINE
  5
EE
100
AcDbEntity
  8
一般
370
               9
  6
Continuous
 62
               7
100
AcDbPolyline
 90
        4
 70
             129
 10
2183.8703732546846
 20
-1810.0485785576027
 10
2183.8703732546846
 20
-1758.6981913175225
 10
2167.7268732840598
 20
-1758.6981913175225
 10
2167.7268732840598
 20
-1810.0485785576027
  0
SPLINE
  5
EF
100
AcDbEntity
  8
一般
370
               9
  6
Continuous
 62
               7
100
AcDbSpline
210
0.0
220
0.0
230
1.0
 70
               9
 71
               2
 72
              24
 73
              21
 74
               0
 42
0.000001
 43
0.000001
 40
0.0
 40
0.0
 40
0.0
 40
1.0
 40
1.0
 40
2.0
 40
2.0
 40
3.0
 40
3.0
 40
4.0
 40
4.0
 40
5.0
 40
5.0
 40
6.0
 40
6.0
 40
7.0
 40
7.0
 40
8.0
 40
8.0
 40
9.0
 40
9.0
 40
10.0
 40
10.0
 40
10.0
 10
2295.6368172869134
 20
-1809.0803825688538
 30
0.0
 10
2355.509686724426
 20
-1795.2207957538728
 30
0.0
 10
2356.9466312251307
 20
-1770.3614029008063
 30
0.0
 10
2357.6651034754832
 20
-1757.9317064742729
 30
0.0
 10
2358.3835757258353
 20
-1745.5020100477395
 30
0.0
 10
2322.4598592607035
 20
-1745.5020100477395
 30
0.0
 10
2286.5361427955718
 20
-1745.5020100477395
 30
0.0
 10
2286.5361427955718
 20
-1739.7735010637975
 30
0.0
 10
2286.5361427955718
 20
-1734.0449920798553
 30
0.0
 10
2322.9388407609385
 20
-1734.0449920798553
 30
0.0
 10
2359.3415387263049
 20
-1734.0449920798553
 30
0.0
 10
2362.6944178902418
 20
-1733.3188407108814
 30
0.0
 10
2366.0472970541787
 20
-1732.5926893419075
 30
0.0
 10
2368.6817082989101
 20
-1735.013188068604
 30
0.0
 10
2371.3161195436419
 20
-1737.4336867953007
 30
0.0
 10
2369.4001762181165
 20
-1801.8189038984124
 30
0.0
 10
2336.8293475792148
 20
-1810.7747386814005
 30
0.0
 10
2320.5439332597643
 20
-1815.2526560728948
 30
0.0
 10
2304.2585189403135
 20
-1819.7305734643887
 30
0.0
 10
2299.9476681136134
 20
-1814.4054780166211
 30
0.0
 10
2295.6368172869134
 20
-1809.0803825688538
 30
0.0
  0
SPLINE
  5
F0
100
AcDbEntity
  8
一般
370
               9
  6
Continuous
 62
               7
100
AcDbSpline
210
0.0
220
0.0
230
1.0
 70
               9
 71
               2
 72
              54
 73
              51
 74
               0
 42
0.000001
 43
0.000001
 40
0.0
 40
0.0
 40
0.0
 40
1.0
 40
1.0
 40
2.0
 40
2.0
 40
3.0
 40
3.0
 40
4.0
 40
4.0
 40
5.0
 40
5.0
 40
6.0
 40
6.0
 40
7.0
 40
7.0
 40
8.0
 40
8.0
 40
9.0
 40
9.0
 40
10.0
 40
10.0
 40
11.0
 40
11.0
 40
12.0
 40
12.0
 40
13.0
 40
13.0
 40
14.0
 40
14.0
 40
15.0
 40
15.0
 40
16.0
 40
16.0
 40
17.0
 40
17.0
 40
18.0
 40
18.0
 40
19.0
 40
19.0
 40
20.0
 40
20.0
 40
21.0
 40
21.0
 40
22.0
 40
22.0
 40
23.0
 40
23.0
 40
24.0
 40
24.0
 40
25.0
 40
25.0
 40
25.0
 10
2446.8750097507932
 20
-1780.5185221073427
 30
0.0
 10
2434.1730908260556
 20
-1799.8824944112664
 30
0.0
 10
2423.1121393928001
 20
-1808.1121865801049
 30
0.0
 10
2417.581663676172
 20
-1812.2270326645241
 30
0.0
 10
2412.0511879595442
 20
-1816.3418787489434
 30
0.0
 10
2407.9798322141082
 20
-1812.7111306588986
 30
0.0
 10
2403.9084764686722
 20
-1809.0803825688538
 30
0.0
 10
2426.89965777829
 20
-1794.5394778387231
 30
0.0
 10
2435.281855688133
 20
-1782.6700813948639
 30
0.0
 10
2439.4729546430544
 20
-1776.7353831729345
 30
0.0
 10
2443.6640535979755
 20
-1770.800684951005
 30
0.0
 10
2425.2232095340287
 20
-1770.800684951005
 30
0.0
 10
2406.7823654700815
 20
-1770.800684951005
 30
0.0
 10
2406.7823654700815
 20
-1766.2196707518112
 30
0.0
 10
2406.7823654700815
 20
-1761.6386565526175
 30
0.0
 10
2426.8286876104376
 20
-1761.6386565526175
 30
0.0
 10
2446.8750097507932
 20
-1761.6386565526175
 30
0.0
 10
2446.8750097507932
 20
-1750.5043676627081
 30
0.0
 10
2446.8750097507932
 20
-1739.3700787727987
 30
0.0
 10
2451.4963085020236
 20
-1739.3700787727987
 30
0.0
 10
2456.1176072532544
 20
-1739.3700787727987
 30
0.0
 10
2460.4284494176609
 20
-1739.8541855219971
 30
0.0
 10
2458.7520098356922
 20
-1741.3064795051207
 30
0.0
 10
2457.9137900447081
 20
-1742.0326264966825
 30
0.0
 10
2457.075570253724
 20
-1742.7587734882441
 30
0.0
 10
2457.075570253724
 20
-1752.1987150204309
 30
0.0
 10
2457.075570253724
 20
-1761.6386565526175
 30
0.0
 10
2473.8399747357025
 20
-1761.6386565526175
 30
0.0
 10
2490.6043792176815
 20
-1761.6386565526175
 30
0.0
 10
2490.6043792176815
 20
-1766.2196707518112
 30
0.0
 10
2490.6043792176815
 20
-1770.800684951005
 30
0.0
 10
2473.8399747357025
 20
-1770.800684951005
 30
0.0
 10
2457.075570253724
 20
-1770.800684951005
 30
0.0
 10
2457.075570253724
 20
-1794.0553798443484
 30
0.0
 10
2457.075570253724
 20
-1817.310074737692
 30
0.0
 10
2457.075570253724
 20
-1825.9880138965293
 30
0.0
 10
2453.004214508288
 20
-1825.9880138965293
 30
0.0
 10
2450.9685366355698
 20
-1825.9880138965293
 30
0.0
 10
2448.932858762852
 20
-1825.9880138965293
 30
0.0
 10
2442.9455770164768
 20
-1825.9880138965293
 30
0.0
 10
2436.9582952701016
 20
-1825.9880138965293
 30
0.0
 10
2436.2398186886026
 20
-1821.4069996973356
 30
0.0
 10
2435.5213421071035
 20
-1816.8259854981418
 30
0.0
 10
2438.8742212710404
 20
-1816.8259854981418
 30
0.0
 10
2442.2271004349777
 20
-1816.8259854981418
 30
0.0
 10
2446.8750097507932
 20
-1816.8259854981418
 30
0.0
 10
2446.8750097507932
 20
-1814.6475313912206
 30
0.0
 10
2446.8750097507932
 20
-1813.5583043377599
 30
0.0
 10
2446.8750097507932
 20
-1812.4690772842991
 30
0.0
 10
2446.8750097507932
 20
-1796.4937996958211
 30
0.0
 10
2446.8750097507932
 20
-1780.5185221073427
 30
0.0
  0
LWPOLYLINE
  5
F1
100
AcDbEntity
  8
一般
370
               9
  6
Continuous
 62
               7
100
AcDbPolyline
 90
        4
 70
             129
 10
2518.8858939783045
 20
-1777.9366544642467
 10
2518.8858939783045
 20
-1766.4796364963624
 10
2625.699071710937
 20
-1766.4796364963624
 10
2625.699071710937
 20
-1777.9366544642467
  0
SPLINE
  5
F2
100
AcDbEntity
  8
一般
370
               9
  6
Continuous
 62
               7
100
AcDbSpline
210
0.0
220
0.0
230
1.0
 70
               9
 71
               2
 72
              44
 73
              41
 74
               0
 42
0.000001
 43
0.000001
 40
0.0
 40
0.0
 40
0.0
 40
1.0
 40
1.0
 40
2.0
 40
2.0
 40
3.0
 40
3.0
 40
4.0
 40
4.0
 40
5.0
 40
5.0
 40
6.0
 40
6.0
 40
7.0
 40
7.0
 40
8.0
 40
8.0
 40
9.0
 40
9.0
 40
10.0
 40
10.0
 40
11.0
 40
11.0
 40
12.0
 40
12.0
 40
13.0
 40
13.0
 40
14.0
 40
14.0
 40
15.0
 40
15.0
 40
16.0
 40
16.0
 40
17.0
 40
17.0
 40
18.0
 40
18.0
 40
19.0
 40
19.0
 40
20.0
 40
20.0
 40
20.0
 10
2642.4849958167511
 20
-1799.3984051717159
 30
0.0
 10
2652.5436333085627
 20
-1799.1563517971167
 30
0.0
 10
2662.6022708003738
 20
-1798.9142984225175
 30
0.0
 10
2679.845656782587
 20
-1761.1545498034188
 30
0.0
 10
2684.395994028258
 20
-1741.5485241248959
 30
0.0
 10
2686.6711626510933
 20
-1731.7455112856344
 30
0.0
 10
2688.946331273929
 20
-1721.9424984463728
 30
0.0
 10
2694.4546315200696
 20
-1723.8788991786948
 30
0.0
 10
2699.9629317662102
 20
-1725.8152999110168
 30
0.0
 10
2704.2737739306167
 20
-1728.7198878772638
 30
0.0
 10
2701.6393713481789
 20
-1729.4460392462374
 30
0.0
 10
2700.3221700569593
 20
-1729.8091149307243
 30
0.0
 10
2699.0049687657402
 20
-1730.1721906152111
 30
0.0
 10
2689.9042942743986
 20
-1764.5432445188644
 30
0.0
 10
2682.2405729460547
 20
-1781.2446734763164
 30
0.0
 10
2678.4087122818828
 20
-1789.5953879550425
 30
0.0
 10
2674.5768516177104
 20
-1797.9461024337684
 30
0.0
 10
2699.4839589282683
 20
-1796.73585307042
 30
0.0
 10
2724.3910662388257
 20
-1795.5256037070719
 30
0.0
 10
2714.3324287470141
 20
-1781.9708248452903
 30
0.0
 10
2711.4585310833122
 20
-1778.8241747496199
 30
0.0
 10
2710.021582251461
 20
-1777.2508497017848
 30
0.0
 10
2708.5846334196099
 20
-1775.6775246539498
 30
0.0
 10
2713.3744570842518
 20
-1772.2888299385045
 30
0.0
 10
2718.1642807488934
 20
-1768.9001352230589
 30
0.0
 10
2734.4497037306373
 20
-1786.8118222986832
 30
0.0
 10
2741.8739386400102
 20
-1798.9143071773415
 30
0.0
 10
2745.5860560946967
 20
-1804.9655496166706
 30
0.0
 10
2749.2981735493831
 20
-1811.0167920559998
 30
0.0
 10
2744.0293597222135
 20
-1814.6475313912206
 30
0.0
 10
2738.7605458950438
 20
-1818.2782707264412
 30
0.0
 10
2734.9286852308719
 20
-1811.9849792899249
 30
0.0
 10
2731.0968245667
 20
-1805.6916878534084
 30
0.0
 10
2690.8622659371613
 20
-1808.8383379490788
 30
0.0
 10
2650.627707307623
 20
-1811.9849880447489
 30
0.0
 10
2647.7538009816271
 20
-1816.8259854981418
 30
0.0
 10
2647.0353330624216
 20
-1814.4054867714453
 30
0.0
 10
2646.6760991028186
 20
-1813.195237408097
 30
0.0
 10
2646.3168651432161
 20
-1811.9849880447489
 30
0.0
 10
2644.4009304799838
 20
-1805.6916966082324
 30
0.0
 10
2642.4849958167511
 20
-1799.3984051717159
 30
0.0
  0
SPLINE
  5
F3
100
AcDbEntity
  8
一般
370
               9
  6
Continuous
 62
               7
100
AcDbSpline
210
0.0
220
0.0
230
1.0
 70
               9
 71
               2
 72
              66
 73
              63
 74
               0
 42
0.000001
 43
0.000001
 40
0.0
 40
0.0
 40
0.0
 40
1.0
 40
1.0
 40
2.0
 40
2.0
 40
3.0
 40
3.0
 40
4.0
 40
4.0
 40
5.0
 40
5.0
 40
6.0
 40
6.0
 40
7.0
 40
7.0
 40
8.0
 40
8.0
 40
9.0
 40
9.0
 40
10.0
 40
10.0
 40
11.0
 40
11.0
 40
12.0
 40
12.0
 40
13.0
 40
13.0
 40
14.0
 40
14.0
 40
15.0
 40
15.0
 40
16.0
 40
16.0
 40
17.0
 40
17.0
 40
18.0
 40
18.0
 40
19.0
 40
19.0
 40
20.0
 40
20.0
 40
21.0
 40
21.0
 40
22.0
 40
22.0
 40
23.0
 40
23.0
 40
24.0
 40
24.0
 40
25.0
 40
25.0
 40
26.0
 40
26.0
 40
27.0
 40
27.0
 40
28.0
 40
28.0
 40
29.0
 40
29.0
 40
30.0
 40
30.0
 40
31.0
 40
31.0
 40
31.0
 10
2051.0072496133639
 20
-1891.8607012878697
 30
0.0
 10
2058.9104660229718
 20
-1891.134549918896
 30
0.0
 10
2066.8136824325798
 20
-1890.4083985499221
 30
0.0
 10
2065.1372428506111
 20
-1886.2935612203269
 30
0.0
 10
2063.4608032686428
 20
-1882.1787238907316
 30
0.0
 10
2066.8136824325798
 20
-1880.484376533009
 30
0.0
 10
2070.1665615965167
 20
-1878.7900291752865
 30
0.0
 10
2073.9984309229822
 20
-1886.0515078457277
 30
0.0
 10
2075.6748705049504
 20
-1891.6186479132703
 30
0.0
 10
2076.5130902959345
 20
-1894.4022179470417
 30
0.0
 10
2077.3513100869191
 20
-1897.1857879808131
 30
0.0
 10
2073.7589358417181
 20
-1898.8801440933598
 30
0.0
 10
2070.1665615965167
 20
-1900.5745002059066
 30
0.0
 10
2069.6875800962816
 20
-1898.6380994735846
 30
0.0
 10
2069.2085985960471
 20
-1896.7016987412626
 30
0.0
 10
2064.6582613503761
 20
-1897.4278501102362
 30
0.0
 10
2060.1079241047055
 20
-1898.1540014792101
 30
0.0
 10
2060.1079241047055
 20
-1924.5374165886242
 30
0.0
 10
2060.1079241047055
 20
-1950.920831698038
 30
0.0
 10
2055.5753272354245
 20
-1950.920831698038
 30
0.0
 10
2051.0427303661436
 20
-1950.920831698038
 30
0.0
 10
2051.0427303661436
 20
-1925.0215145829984
 30
0.0
 10
2051.0427303661436
 20
-1899.122197467959
 30
0.0
 10
2044.3192316618795
 20
-1900.0903934567082
 30
0.0
 10
2037.5957329576154
 20
-1901.0585894454571
 30
0.0
 10
2037.1167427950877
 20
-1904.4472841609024
 30
0.0
 10
2036.1587797946179
 20
-1903.4790881721535
 30
0.0
 10
2035.6797982943831
 20
-1902.9949901777791
 30
0.0
 10
2035.2008167941481
 20
-1902.5108921834046
 30
0.0
 10
2034.2428537936785
 20
-1897.4278501102362
 30
0.0
 10
2033.2848907932087
 20
-1892.3448080370681
 30
0.0
 10
2037.3562465386447
 20
-1892.3448080370681
 30
0.0
 10
2041.4276022840806
 20
-1892.3448080370681
 30
0.0
 10
2045.4989580295164
 20
-1886.2935612203269
 30
0.0
 10
2049.5703137749524
 20
-1880.2423144035859
 30
0.0
 10
2042.3855652845502
 20
-1872.9808269783205
 30
0.0
 10
2035.2008167941481
 20
-1865.7193395530551
 30
0.0
 10
2037.8352280388794
 20
-1862.3306448376097
 30
0.0
 10
2040.4696392836108
 20
-1858.9419501221641
 30
0.0
 10
2041.4276022840806
 20
-1859.910146110913
 30
0.0
 10
2042.3855652845505
 20
-1860.8783420996622
 30
0.0
 10
2049.0913236124243
 20
-1850.2281599589512
 30
0.0
 10
2055.7970819402985
 20
-1839.5779778182402
 30
0.0
 10
2059.8684376857345
 20
-1841.9984677901127
 30
0.0
 10
2063.939793431171
 20
-1844.4189577619852
 30
0.0
 10
2065.8557194321102
 20
-1846.8394564886817
 30
0.0
 10
2064.1792798501415
 20
-1846.5974118689064
 30
0.0
 10
2063.3410600591569
 20
-1846.476389559019
 30
0.0
 10
2062.5028402681728
 20
-1846.3553672491314
 30
0.0
 10
2055.5575868590349
 20
-1856.2793980208685
 30
0.0
 10
2048.6123334498966
 20
-1866.2034287926053
 30
0.0
 10
2051.7257261948625
 20
-1869.3500788882757
 30
0.0
 10
2054.8391189398289
 20
-1872.4967289839458
 30
0.0
 10
2060.3474191859696
 20
-1863.2988408263584
 30
0.0
 10
2065.8557194321102
 20
-1854.100952668771
 30
0.0
 10
2069.6875800962821
 20
-1856.7634960152427
 30
0.0
 10
2073.519440760454
 20
-1859.4260393617144
 30
0.0
 10
2075.4353840859794
 20
-1861.8465380884111
 30
0.0
 10
2073.7589445040112
 20
-1861.6044934686358
 30
0.0
 10
2072.9207247130271
 20
-1861.4834711587482
 30
0.0
 10
2072.082504922043
 20
-1861.3624488488606
 30
0.0
 10
2061.5448772677037
 20
-1876.6115750683653
 30
0.0
 10
2051.0072496133639
 20
-1891.8607012878697
 30
0.0
  0
SPLINE
  5
F4
100
AcDbEntity
  8
一般
370
               9
  6
Continuous
 62
               7
100
AcDbSpline
210
0.0
220
0.0
230
1.0
 70
               9
 71
               2
 72
              30
 73
              27
 74
               0
 42
0.000001
 43
0.000001
 40
0.0
 40
0.0
 40
0.0
 40
1.0
 40
1.0
 40
2.0
 40
2.0
 40
3.0
 40
3.0
 40
4.0
 40
4.0
 40
5.0
 40
5.0
 40
6.0
 40
6.0
 40
7.0
 40
7.0
 40
8.0
 40
8.0
 40
9.0
 40
9.0
 40
10.0
 40
10.0
 40
11.0
 40
11.0
 40
12.0
 40
12.0
 40
13.0
 40
13.0
 40
13.0
 10
2097.94757523307
 20
-1871.5285329951969
 30
0.0
 10
2096.0316492321308
 20
-1879.2741184148367
 30
0.0
 10
2093.876219487634
 20
-1885.0833118569788
 30
0.0
 10
2092.7985046153854
 20
-1887.9879085780499
 30
0.0
 10
2091.7207897431372
 20
-1890.8925052991208
 30
0.0
 10
2091.7207897431372
 20
-1920.9066684985794
 30
0.0
 10
2091.7207897431372
 20
-1950.920831698038
 30
0.0
 10
2087.1881928738562
 20
-1950.920831698038
 30
0.0
 10
2082.6555960045753
 20
-1950.920831698038
 30
0.0
 10
2082.6555960045753
 20
-1927.9261113040695
 30
0.0
 10
2082.6555960045753
 20
-1904.9313909101011
 30
0.0
 10
2081.0412564022649
 20
-1908.3200856255464
 30
0.0
 10
2079.4357783258556
 20
-1910.4985309776437
 30
0.0
 10
2078.6330392876512
 20
-1911.5877536536923
 30
0.0
 10
2077.8303002494467
 20
-1912.6769763297409
 30
0.0
 10
2075.1958890047154
 20
-1909.2882816142956
 30
0.0
 10
2072.5614777599844
 20
-1905.89958689885
 30
0.0
 10
2085.0150314152629
 20
-1890.8925052991208
 30
0.0
 10
2087.8889290789657
 20
-1878.5479670458631
 30
0.0
 10
2089.3258779108164
 20
-1872.3756979192342
 30
0.0
 10
2090.7628267426676
 20
-1866.2034287926053
 30
0.0
 10
2095.0736775693676
 20
-1867.6557315305529
 30
0.0
 10
2099.3845283960673
 20
-1869.1080342685004
 30
0.0
 10
2101.3004543970069
 20
-1871.0444262459982
 30
0.0
 10
2099.6240148150382
 20
-1871.2864796205974
 30
0.0
 10
2098.7857950240541
 20
-1871.4075063078972
 30
0.0
 10
2097.94757523307
 20
-1871.5285329951969
 30
0.0
  0
LWPOLYLINE
  5
F5
100
AcDbEntity
  8
一般
370
               9
  6
Continuous
 62
               7
100
AcDbPolyline
 90
       16
 70
             129
 10
2122.8546825436274
 20
-1894.7653067637646
 10
2139.1401055253709
 20
-1894.7653067637646
 10
2139.1401055253709
 20
-1949.9526181996409
 10
2130.0749117868095
 20
-1949.9526181996409
 10
2130.0749117868095
 20
-1947.3169784273932
 10
2108.0062127248812
 20
-1947.3169784273932
 10
2108.0062127248812
 20
-1950.920831698038
 10
2098.9410189863192
 20
-1950.920831698038
 10
2098.9410189863192
 20
-1894.7653067637646
 10
2114.2329982148135
 20
-1894.7653067637646
 10
2115.1909612152831
 20
-1884.3840640622288
 10
2098.9055382335396
 20
-1884.3840640622288
 10
2098.9055382335396
 20
-1876.36953044859
 10
2143.9299205277198
 20
-1876.36953044859
 10
2143.9299205277198
 20
-1884.3840640622288
 10
2124.770608544567
 20
-1884.3840640622288
  0
LWPOLYLINE
  5
F6
100
AcDbEntity
  8
一般
370
               9
  6
Continuous
 62
               7
100
AcDbPolyline
 90
        4
 70
             129
 10
2108.0062127248812
 20
-1925.0484006475742
 10
2108.0062127248812
 20
-1939.3024448137539
 10
2130.0749117868095
 20
-1939.3024448137539
 10
2130.0749117868095
 20
-1925.0484006475742
  0
LWPOLYLINE
  5
F7
100
AcDbEntity
  8
一般
370
               9
  6
Continuous
 62
               7
100
AcDbPolyline
 90
        4
 70
             129
 10
2108.0062127248812
 20
-1917.0338670339354
 10
2130.0749117868095
 20
-1917.0338670339354
 10
2130.0749117868095
 20
-1902.7798403774038
 10
2108.0062127248812
 20
-1902.7798403774038
  0
SPLINE
  5
F8
100
AcDbEntity
  8
一般
370
               9
  6
Continuous
 62
               7
100
AcDbSpline
210
0.0
220
0.0
230
1.0
 70
               9
 71
               2
 72
              32
 73
              29
 74
               0
 42
0.000001
 43
0.000001
 40
0.0
 40
0.0
 40
0.0
 40
1.0
 40
1.0
 40
2.0
 40
2.0
 40
3.0
 40
3.0
 40
4.0
 40
4.0
 40
5.0
 40
5.0
 40
6.0
 40
6.0
 40
7.0
 40
7.0
 40
8.0
 40
8.0
 40
9.0
 40
9.0
 40
10.0
 40
10.0
 40
11.0
 40
11.0
 40
12.0
 40
12.0
 40
13.0
 40
13.0
 40
14.0
 40
14.0
 40
14.0
 10
2132.9488007882187
 20
-1870.560337006448
 30
0.0
 10
2132.9488007882187
 20
-1866.0958582698299
 30
0.0
 10
2132.9488007882187
 20
-1861.6313795332117
 30
0.0
 10
2109.2214111830053
 20
-1861.6313795332117
 30
0.0
 10
2085.4940215777915
 20
-1861.6313795332117
 30
0.0
 10
2085.4940215777915
 20
-1867.306107633178
 30
0.0
 10
2085.4940215777915
 20
-1872.9808357331444
 30
0.0
 10
2080.9614247085101
 20
-1872.9808357331444
 30
0.0
 10
2076.4288278392291
 20
-1872.9808357331444
 30
0.0
 10
2076.4288278392291
 20
-1863.2988408263586
 30
0.0
 10
2076.4288278392291
 20
-1853.6168459195726
 30
0.0
 10
2089.9911376942919
 20
-1853.6168459195726
 30
0.0
 10
2103.553447549355
 20
-1853.6168459195726
 30
0.0
 10
2103.553447549355
 20
-1846.5974118689064
 30
0.0
 10
2103.553447549355
 20
-1839.5779778182402
 30
0.0
 10
2108.4142327195564
 20
-1839.5779778182402
 30
0.0
 10
2113.2750178897577
 20
-1839.5779778182402
 30
0.0
 10
2117.1068872162227
 20
-1840.0620670577907
 30
0.0
 10
2115.4304476342541
 20
-1841.2723164211391
 30
0.0
 10
2114.5922278432699
 20
-1841.877441102813
 30
0.0
 10
2113.7540080522858
 20
-1842.4825657844872
 30
0.0
 10
2113.7540080522858
 20
-1848.04970585203
 30
0.0
 10
2113.7540080522858
 20
-1853.6168459195726
 30
0.0
 10
2127.884001289533
 20
-1853.6168459195726
 30
0.0
 10
2142.0139945267802
 20
-1853.6168459195726
 30
0.0
 10
2142.0139945267802
 20
-1862.0885914630103
 30
0.0
 10
2142.0139945267802
 20
-1870.560337006448
 30
0.0
 10
2137.4813976574997
 20
-1870.560337006448
 30
0.0
 10
2132.9488007882187
 20
-1870.560337006448
 30
0.0
  0
SPLINE
  5
F9
100
AcDbEntity
  8
一般
370
               9
  6
Continuous
 62
               7
100
AcDbSpline
210
0.0
220
0.0
230
1.0
 70
               9
 71
               2
 72
              16
 73
              13
 74
               0
 42
0.000001
 43
0.000001
 40
0.0
 40
0.0
 40
0.0
 40
1.0
 40
1.0
 40
2.0
 40
2.0
 40
3.0
 40
3.0
 40
4.0
 40
4.0
 40
5.0
 40
5.0
 40
6.0
 40
6.0
 40
6.0
 10
2073.0404679225126
 20
-1909.2882816142953
 30
0.0
 10
2075.9143569239213
 20
-1918.9702590114332
 30
0.0
 10
2075.9143569239213
 20
-1925.9897018169236
 30
0.0
 10
2075.9143569239213
 20
-1929.4994232196686
 30
0.0
 10
2075.9143569239213
 20
-1933.0091446224137
 30
0.0
 10
2071.6035147595148
 20
-1933.2511979970132
 30
0.0
 10
2067.2926725951079
 20
-1933.4932513716124
 30
0.0
 10
2067.7716454330493
 20
-1921.3907577381297
 30
0.0
 10
2066.5741960136088
 20
-1915.8236176705871
 30
0.0
 10
2065.9754713038883
 20
-1913.0400476368159
 30
0.0
 10
2065.3767465941683
 20
-1910.2564776030445
 30
0.0
 10
2069.2086072583406
 20
-1909.7723796086698
 30
0.0
 10
2073.0404679225126
 20
-1909.2882816142953
 30
0.0
  0
SPLINE
  5
FA
100
AcDbEntity
  8
一般
370
               9
  6
Continuous
 62
               7
100
AcDbSpline
210
0.0
220
0.0
230
1.0
 70
               9
 71
               2
 72
              20
 73
              17
 74
               0
 42
0.000001
 43
0.000001
 40
0.0
 40
0.0
 40
0.0
 40
1.0
 40
1.0
 40
2.0
 40
2.0
 40
3.0
 40
3.0
 40
4.0
 40
4.0
 40
5.0
 40
5.0
 40
6.0
 40
6.0
 40
7.0
 40
7.0
 40
8.0
 40
8.0
 40
8.0
 10
2045.7384444484874
 20
-1909.772388363494
 30
0.0
 10
2049.0913236124247
 20
-1910.7405843522429
 30
0.0
 10
2047.4148840304561
 20
-1911.4667269663928
 30
0.0
 10
2046.5766642394717
 20
-1911.8297982734675
 30
0.0
 10
2045.7384444484874
 20
-1912.1928695805425
 30
0.0
 10
2046.2174172864291
 20
-1924.7794524535752
 30
0.0
 10
2043.3435282850201
 20
-1933.0091446224135
 30
0.0
 10
2041.9065837843154
 20
-1937.1239907068327
 30
0.0
 10
2040.4696392836108
 20
-1941.238836791252
 30
0.0
 10
2036.3982835381748
 20
-1939.3024360589302
 30
0.0
 10
2032.3269277927388
 20
-1937.3660353266082
 30
0.0
 10
2037.5957329576154
 20
-1923.3271672252758
 30
0.0
 10
2037.5957329576154
 20
-1915.823626425411
 30
0.0
 10
2037.5957329576154
 20
-1912.0718560254786
 30
0.0
 10
2037.5957329576154
 20
-1908.3200856255464
 30
0.0
 10
2041.6670887030514
 20
-1909.0462369945203
 30
0.0
 10
2045.7384444484874
 20
-1909.772388363494
 30
0.0
  0
SPLINE
  5
FB
100
AcDbEntity
  8
一般
370
               9
  6
Continuous
 62
               7
100
AcDbSpline
210
0.0
220
0.0
230
1.0
 70
               9
 71
               2
 72
              44
 73
              41
 74
               0
 42
0.000001
 43
0.000001
 40
0.0
 40
0.0
 40
0.0
 40
1.0
 40
1.0
 40
2.0
 40
2.0
 40
3.0
 40
3.0
 40
4.0
 40
4.0
 40
5.0
 40
5.0
 40
6.0
 40
6.0
 40
7.0
 40
7.0
 40
8.0
 40
8.0
 40
9.0
 40
9.0
 40
10.0
 40
10.0
 40
11.0
 40
11.0
 40
12.0
 40
12.0
 40
13.0
 40
13.0
 40
14.0
 40
14.0
 40
15.0
 40
15.0
 40
16.0
 40
16.0
 40
17.0
 40
17.0
 40
18.0
 40
18.0
 40
19.0
 40
19.0
 40
20.0
 40
20.0
 40
20.0
 10
2211.4880395797045
 20
-1892.1834391206687
 30
0.0
 10
2198.555504424191
 20
-1892.1834391206687
 30
0.0
 10
2185.6229692686775
 20
-1892.1834391206687
 30
0.0
 10
2185.6229692686775
 20
-1895.6528182943139
 30
0.0
 10
2185.6229692686775
 20
-1899.122197467959
 30
0.0
 10
2185.6229692686775
 20
-1928.1681471690206
 30
0.0
 10
2175.3248366956022
 20
-1940.0285874279039
 30
0.0
 10
2170.1757704090646
 20
-1945.9588075573454
 30
0.0
 10
2165.026704122527
 20
-1951.8890276867869
 30
0.0
 10
2160.476366876856
 20
-1947.5321282277687
 30
0.0
 10
2155.926029631185
 20
-1943.1752287687502
 30
0.0
 10
2174.2870420013778
 20
-1925.7476659519723
 30
0.0
 10
2174.2870420013778
 20
-1909.0462369945203
 30
0.0
 10
2174.2870420013778
 20
-1900.6955225157942
 30
0.0
 10
2174.2870420013778
 20
-1892.3448080370681
 30
0.0
 10
2174.2870420013778
 20
-1870.0762390120735
 30
0.0
 10
2174.2870420013778
 20
-1847.8076699870787
 30
0.0
 10
2213.9627874369266
 20
-1847.8076699870787
 30
0.0
 10
2253.6385328724755
 20
-1847.8076699870787
 30
0.0
 10
2253.6385328724755
 20
-1872.0126309895713
 30
0.0
 10
2253.6385328724755
 20
-1896.2175919920639
 30
0.0
 10
2247.9705692388256
 20
-1896.2175919920639
 30
0.0
 10
2242.3026056051758
 20
-1896.2175919920639
 30
0.0
 10
2242.3026056051758
 20
-1894.2005155563663
 30
0.0
 10
2242.3026056051758
 20
-1892.1834391206687
 30
0.0
 10
2231.9246413383462
 20
-1892.1834391206687
 30
0.0
 10
2221.5466770715161
 20
-1892.1834391206687
 30
0.0
 10
2222.0256585717507
 20
-1894.4425689309655
 30
0.0
 10
2222.5046400719857
 20
-1896.7016987412626
 30
0.0
 10
2227.2944723989208
 20
-1923.3271672252758
 30
0.0
 10
2246.6932794633376
 20
-1930.1045566561668
 30
0.0
 10
2256.3926829955462
 20
-1933.4932513716121
 30
0.0
 10
2266.0920865277544
 20
-1936.8819460870575
 30
0.0
 10
2264.1761518645217
 20
-1942.9331841489748
 30
0.0
 10
2262.2602172012894
 20
-1948.984422210892
 30
0.0
 10
2216.7568447445815
 20
-1933.0091446224137
 30
0.0
 10
2214.3619285811137
 20
-1914.1292703128643
 30
0.0
 10
2213.1644704993801
 20
-1904.6893331580895
 30
0.0
 10
2211.9670124176464
 20
-1895.249396003315
 30
0.0
 10
2211.7275259986754
 20
-1893.7164175619919
 30
0.0
 10
2211.4880395797045
 20
-1892.1834391206687
 30
0.0
  0
LWPOLYLINE
  5
FC
100
AcDbEntity
  8
一般
370
               9
  6
Continuous
 62
               7
100
AcDbPolyline
 90
        4
 70
             129
 10
2242.3026056051758
 20
-1880.7264211527843
 10
2242.3026056051758
 20
-1859.2646879549629
 10
2185.6229692686775
 20
-1859.2646879549629
 10
2185.6229692686775
 20
-1880.7264211527843
  0
LWPOLYLINE
  5
FD
100
AcDbEntity
  8
一般
370
               9
  6
Continuous
 62
               7
100
AcDbPolyline
 90
        4
 70
             129
 10
2308.7430809445959
 20
-1928.4908850018196
 10
2297.4071536772963
 20
-1928.4908850018196
 10
2297.4071536772963
 20
-1917.0338670339354
 10
2308.7430809445959
 20
-1917.0338670339354
  0
LWPOLYLINE
  5
FE
100
AcDbEntity
  8
一般
370
               9
  6
Continuous
 62
               7
100
AcDbPolyline
 90
        4
 70
             129
 10
2297.4071536772963
 20
-1874.2717520450444
 10
2297.4071536772963
 20
-1862.81473407716
 10
2308.7430809445959
 20
-1862.81473407716
 10
2308.7430809445959
 20
-1874.2717520450444
  0
SPLINE
  5
FF
100
AcDbEntity
  8
一般
370
               9
  6
Continuous
 62
               7
100
AcDbSpline
210
0.0
220
0.0
230
1.0
 70
               9
 71
               2
 72
              20
 73
              17
 74
               0
 42
0.000001
 43
0.000001
 40
0.0
 40
0.0
 40
0.0
 40
1.0
 40
1.0
 40
2.0
 40
2.0
 40
3.0
 40
3.0
 40
4.0
 40
4.0
 40
5.0
 40
5.0
 40
6.0
 40
6.0
 40
7.0
 40
7.0
 40
8.0
 40
8.0
 40
8.0
 10
2408.8212118670626
 20
-1855.5532554067186
 30
0.0
 10
2408.8212118670626
 20
-1897.4278501102362
 30
0.0
 10
2408.8212118670626
 20
-1939.3024448137539
 30
0.0
 10
2403.1532482334128
 20
-1939.3024448137539
 30
0.0
 10
2397.485284599763
 20
-1939.3024448137539
 30
0.0
 10
2397.485284599763
 20
-1907.1098362621981
 30
0.0
 10
2397.485284599763
 20
-1874.9172277106422
 30
0.0
 10
2385.6703758322283
 20
-1874.9172277106422
 30
0.0
 10
2373.855467064694
 20
-1874.9172277106422
 30
0.0
 10
2373.855467064694
 20
-1871.0444350008224
 30
0.0
 10
2373.855467064694
 20
-1867.1716422910024
 30
0.0
 10
2394.9307050487864
 20
-1867.6557315305529
 30
0.0
 10
2398.0440977937524
 20
-1861.6044934686358
 30
0.0
 10
2399.6007941662356
 20
-1858.5788744376773
 30
0.0
 10
2401.1574905387188
 20
-1855.5532554067186
 30
0.0
 10
2404.9893512028907
 20
-1855.5532554067186
 30
0.0
 10
2408.8212118670626
 20
-1855.5532554067186
 30
0.0
  0
LWPOLYLINE
  5
100
100
AcDbEntity
  8
一般
370
               9
  6
Continuous
 62
               7
100
AcDbPolyline
 90
        4
 70
             129
 10
2459.6149177747757
 20
-1951.4049209375885
 10
2510.3871127209468
 20
-1838.6097818294913
 10
2515.1769277232956
 20
-1841.514369795738
 10
2464.4047501017112
 20
-1954.3095264134834
  0
SPLINE
  5
101
100
AcDbEntity
  8
一般
370
               9
  6
Continuous
 62
               7
100
AcDbSpline
210
0.0
220
0.0
230
1.0
 70
               9
 71
               2
 72
              70
 73
              67
 74
               0
 42
0.000001
 43
0.000001
 40
0.0
 40
0.0
 40
0.0
 40
1.0
 40
1.0
 40
2.0
 40
2.0
 40
3.0
 40
3.0
 40
4.0
 40
4.0
 40
5.0
 40
5.0
 40
6.0
 40
6.0
 40
7.0
 40
7.0
 40
8.0
 40
8.0
 40
9.0
 40
9.0
 40
10.0
 40
10.0
 40
11.0
 40
11.0
 40
12.0
 40
12.0
 40
13.0
 40
13.0
 40
14.0
 40
14.0
 40
15.0
 40
15.0
 40
16.0
 40
16.0
 40
17.0
 40
17.0
 40
18.0
 40
18.0
 40
19.0
 40
19.0
 40
20.0
 40
20.0
 40
21.0
 40
21.0
 40
22.0
 40
22.0
 40
23.0
 40
23.0
 40
24.0
 40
24.0
 40
25.0
 40
25.0
 40
26.0
 40
26.0
 40
27.0
 40
27.0
 40
28.0
 40
28.0
 40
29.0
 40
29.0
 40
30.0
 40
30.0
 40
31.0
 40
31.0
 40
32.0
 40
32.0
 40
33.0
 40
33.0
 40
33.0
 10
2604.2384581534816
 20
-1863.2988408263586
 30
0.0
 10
2610.4652263188277
 20
-1869.5921410176989
 30
0.0
 10
2610.4652263188277
 20
-1873.7069783472941
 30
0.0
 10
2610.4652263188277
 20
-1875.7643970120916
 30
0.0
 10
2610.4652263188277
 20
-1877.8218156768894
 30
0.0
 10
2610.4652263188277
 20
-1890.4083985499221
 30
0.0
 10
2604.238449491188
 20
-1894.5232446343412
 30
0.0
 10
2601.1250610773686
 20
-1896.5806676765508
 30
0.0
 10
2598.0116726635488
 20
-1898.6380907187604
 30
0.0
 10
2584.1211831698588
 20
-1907.835978876348
 30
0.0
 10
2579.8103323431587
 20
-1911.2246735917934
 30
0.0
 10
2577.6549069298089
 20
-1912.9190209495162
 30
0.0
 10
2575.4994815164591
 20
-1914.6133683072389
 30
0.0
 10
2569.2727133511125
 20
-1919.4543657606318
 30
0.0
 10
2565.6803391059116
 20
-1924.0533098394255
 30
0.0
 10
2563.8841519833113
 20
-1926.3527818788225
 30
0.0
 10
2562.0879648607106
 20
-1928.6522539182195
 30
0.0
 10
2587.474053671503
 20
-1928.6522539182195
 30
0.0
 10
2612.8601424822955
 20
-1928.6522539182195
 30
0.0
 10
2612.8601424822955
 20
-1934.3807629021617
 30
0.0
 10
2612.8601424822955
 20
-1940.1092718861037
 30
0.0
 10
2580.7682953436288
 20
-1940.1092718861037
 30
0.0
 10
2548.6764482049621
 20
-1940.1092718861037
 30
0.0
 10
2548.6764482049621
 20
-1934.6228162767607
 30
0.0
 10
2548.6764482049621
 20
-1929.1363606674179
 30
0.0
 10
2551.5503372063713
 20
-1922.8430604760774
 30
0.0
 10
2555.1427114515723
 20
-1919.2123123860326
 30
0.0
 10
2556.9388985741725
 20
-1917.3969383410104
 30
0.0
 10
2558.7350856967732
 20
-1915.5815642959881
 30
0.0
 10
2567.3567700255871
 20
-1906.8677828875989
 30
0.0
 10
2578.373379180161
 20
-1899.122197467959
 30
0.0
 10
2583.8816837574482
 20
-1895.249404758139
 30
0.0
 10
2589.3899883347353
 20
-1891.3766120483192
 30
0.0
 10
2598.4906628260769
 20
-1885.0833118569788
 30
0.0
 10
2598.4906628260769
 20
-1881.6946171415334
 30
0.0
 10
2598.4906628260769
 20
-1880.0002697838106
 30
0.0
 10
2598.4906628260769
 20
-1878.3059224260878
 30
0.0
 10
2598.4906628260769
 20
-1873.4649249726949
 30
0.0
 10
2596.8142232441082
 20
-1871.7705776149721
 30
0.0
 10
2595.9760034531241
 20
-1870.9234039361108
 30
0.0
 10
2595.13778366214
 20
-1870.0762302572493
 30
0.0
 10
2591.305914335675
 20
-1866.2034287926053
 30
0.0
 10
2586.995072171268
 20
-1866.2034287926053
 30
0.0
 10
2584.8396510890643
 20
-1866.2034287926053
 30
0.0
 10
2582.6842300068611
 20
-1866.2034287926053
 30
0.0
 10
2573.1045653529918
 20
-1866.2034287926053
 30
0.0
 10
2570.9491442707881
 20
-1868.3818828995265
 30
0.0
 10
2569.871433729686
 20
-1869.4711099529873
 30
0.0
 10
2568.7937231885844
 20
-1870.560337006448
 30
0.0
 10
2563.5249180237079
 20
-1875.8854236993914
 30
0.0
 10
2563.2854229424438
 20
-1881.2105191471589
 30
0.0
 10
2563.1656754018122
 20
-1883.8730668710427
 30
0.0
 10
2563.0459278611802
 20
-1886.5356145949263
 30
0.0
 10
2556.57966461457
 20
-1886.5356145949263
 30
0.0
 10
2550.1134013679593
 20
-1886.5356145949263
 30
0.0
 10
2551.0713643684294
 20
-1872.0126222347474
 30
0.0
 10
2554.9032250326013
 20
-1868.1398295249276
 30
0.0
 10
2556.8191553646875
 20
-1866.2034331700174
 30
0.0
 10
2558.7350856967732
 20
-1864.2670368151075
 30
0.0
 10
2567.3567700255871
 20
-1855.5532554067186
 30
0.0
 10
2574.78100493496
 20
-1855.5532554067186
 30
0.0
 10
2578.4931223896465
 20
-1855.5532554067186
 30
0.0
 10
2582.2052398443329
 20
-1855.5532554067186
 30
0.0
 10
2596.5747368251377
 20
-1855.5532554067186
 30
0.0
 10
2600.4065974893092
 20
-1859.4260481165386
 30
0.0
 10
2602.3225278213954
 20
-1861.3624444714487
 30
0.0
 10
2604.2384581534816
 20
-1863.2988408263586
 30
0.0
  0
SPLINE
  5
102
100
AcDbEntity
  8
一般
370
               9
  6
Continuous
 62
               7
100
AcDbSpline
210
0.0
220
0.0
230
1.0
 70
               9
 71
               2
 72
              36
 73
              33
 74
               0
 42
0.000001
 43
0.000001
 40
0.0
 40
0.0
 40
0.0
 40
1.0
 40
1.0
 40
2.0
 40
2.0
 40
3.0
 40
3.0
 40
4.0
 40
4.0
 40
5.0
 40
5.0
 40
6.0
 40
6.0
 40
7.0
 40
7.0
 40
8.0
 40
8.0
 40
9.0
 40
9.0
 40
10.0
 40
10.0
 40
11.0
 40
11.0
 40
12.0
 40
12.0
 40
13.0
 40
13.0
 40
14.0
 40
14.0
 40
15.0
 40
15.0
 40
16.0
 40
16.0
 40
16.0
 10
2702.9304526813703
 20
-1855.0691486575201
 30
0.0
 10
2717.2999323375884
 20
-1855.0691486575201
 30
0.0
 10
2721.6107831642885
 20
-1859.4260481165386
 30
0.0
 10
2723.7662085776387
 20
-1861.6044978460477
 30
0.0
 10
2725.921633990989
 20
-1863.782947575557
 30
0.0
 10
2737.4172246457974
 20
-1875.4013169501929
 30
0.0
 10
2737.4172246457974
 20
-1886.7776592147015
 30
0.0
 10
2737.4172246457974
 20
-1892.465830346956
 30
0.0
 10
2737.4172246457974
 20
-1898.1540014792101
 30
0.0
 10
2737.4172246457974
 20
-1919.9384725098303
 30
0.0
 10
2731.6694293183937
 20
-1925.7476659519723
 30
0.0
 10
2728.7955316546913
 20
-1928.6522626730434
 30
0.0
 10
2725.921633990989
 20
-1931.5568593941143
 30
0.0
 10
2717.2999323375884
 20
-1940.2706408025031
 30
0.0
 10
2710.1151925094791
 20
-1940.2706408025031
 30
0.0
 10
2706.5228225954247
 20
-1940.2706408025031
 30
0.0
 10
2702.9304526813703
 20
-1940.2706408025031
 30
0.0
 10
2688.5609730251526
 20
-1940.2706408025031
 30
0.0
 10
2684.2501221984521
 20
-1935.9137500983088
 30
0.0
 10
2682.0946967851023
 20
-1933.7353047462116
 30
0.0
 10
2679.9392713717521
 20
-1931.5568593941143
 30
0.0
 10
2668.4436807169432
 20
-1919.9384725098303
 30
0.0
 10
2668.4436807169432
 20
-1909.0462369945203
 30
0.0
 10
2668.4436807169432
 20
-1903.6001192368653
 30
0.0
 10
2668.4436807169432
 20
-1898.1540014792101
 30
0.0
 10
2668.4436807169432
 20
-1875.4013169501929
 30
0.0
 10
2674.1914760443478
 20
-1869.5921322628749
 30
0.0
 10
2677.0653737080502
 20
-1866.6875399192159
 30
0.0
 10
2679.9392713717521
 20
-1863.782947575557
 30
0.0
 10
2688.5609730251526
 20
-1855.0691486575201
 30
0.0
 10
2695.7457128532615
 20
-1855.0691486575201
 30
0.0
 10
2699.3380827673159
 20
-1855.0691486575201
 30
0.0
 10
2702.9304526813703
 20
-1855.0691486575201
 30
0.0
  0
SPLINE
  5
103
100
AcDbEntity
  8
一般
370
               9
  6
Continuous
 62
               7
100
AcDbSpline
210
0.0
220
0.0
230
1.0
 70
               9
 71
               2
 72
              36
 73
              33
 74
               0
 42
0.000001
 43
0.000001
 40
0.0
 40
0.0
 40
0.0
 40
1.0
 40
1.0
 40
2.0
 40
2.0
 40
3.0
 40
3.0
 40
4.0
 40
4.0
 40
5.0
 40
5.0
 40
6.0
 40
6.0
 40
7.0
 40
7.0
 40
8.0
 40
8.0
 40
9.0
 40
9.0
 40
10.0
 40
10.0
 40
11.0
 40
11.0
 40
12.0
 40
12.0
 40
13.0
 40
13.0
 40
14.0
 40
14.0
 40
15.0
 40
15.0
 40
16.0
 40
16.0
 40
16.0
 10
2702.9304526813703
 20
-1864.2670368151075
 30
0.0
 10
2693.8297781900292
 20
-1864.2670368151075
 30
0.0
 10
2691.1953756075909
 20
-1866.9295889164032
 30
0.0
 10
2689.8781743163718
 20
-1868.260864967051
 30
0.0
 10
2688.5609730251526
 20
-1869.5921410176989
 30
0.0
 10
2680.4182615342806
 20
-1877.8218156768894
 30
0.0
 10
2680.4182615342806
 20
-1887.9879085780497
 30
0.0
 10
2680.4182615342806
 20
-1893.0709550286299
 30
0.0
 10
2680.4182615342806
 20
-1898.1540014792101
 30
0.0
 10
2680.4182615342806
 20
-1917.5179737831338
 30
0.0
 10
2684.4896172797162
 20
-1921.6328198675531
 30
0.0
 10
2686.5252951524344
 20
-1923.6902429097627
 30
0.0
 10
2688.5609730251526
 20
-1925.7476659519723
 30
0.0
 10
2693.8297781900292
 20
-1931.0727526449159
 30
0.0
 10
2698.3801154356997
 20
-1931.0727526449159
 30
0.0
 10
2700.655284058535
 20
-1931.0727526449159
 30
0.0
 10
2702.9304526813703
 20
-1931.0727526449159
 30
0.0
 10
2712.0311271727119
 20
-1931.0727526449159
 30
0.0
 10
2714.6655297551506
 20
-1928.4102092984442
 30
0.0
 10
2715.9827310463697
 20
-1927.0789376252083
 30
0.0
 10
2717.2999323375884
 20
-1925.7476659519723
 30
0.0
 10
2725.4426438284604
 20
-1917.5179737831338
 30
0.0
 10
2725.4426438284604
 20
-1907.5939342565725
 30
0.0
 10
2725.4426438284604
 20
-1902.6319144932922
 30
0.0
 10
2725.4426438284604
 20
-1897.6698947300117
 30
0.0
 10
2725.4426438284604
 20
-1877.8218156768894
 30
0.0
 10
2721.3712880830244
 20
-1873.7069783472941
 30
0.0
 10
2719.3356102103062
 20
-1871.6495596824966
 30
0.0
 10
2717.2999323375884
 20
-1869.5921410176989
 30
0.0
 10
2712.0311271727119
 20
-1864.2670368151075
 30
0.0
 10
2707.4807899270409
 20
-1864.2670368151075
 30
0.0
 10
2705.2056213042056
 20
-1864.2670368151075
 30
0.0
 10
2702.9304526813703
 20
-1864.2670368151075
 30
0.0
  0
ENDBLK
  5
104
100
AcDbEntity
  8
一般
100
AcDbBlockEnd
  0
ENDSEC
  0
SECTION
  2
ENTITIES
  0
LINE
  5
105
100
AcDbEntity
  8
一般
370
               9
  6
Continuous
 62
               7
100
AcDbLine
 10
970.0
 20
-1410.0
 30
0.0
 11
-2560.0
 21
-1410.0
 31
0.0
  0
LINE
  5
106
100
AcDbEntity
  8
一般
370
               5
  6
STYLE_09
 62
               7
100
AcDbLine
 10
-1250.0
 20
-1780.0
 30
0.0
 11
-1250.0
 21
1820.0000000000005
 31
0.0
  0
LINE
  5
107
100
AcDbEntity
  8
一般
370
               5
  6
STYLE_09
 62
               7
100
AcDbLine
 10
-340.0
 20
-1780.0
 30
0.0
 11
-340.0
 21
1820.0000000000005
 31
0.0
  0
LINE
  5
108
100
AcDbEntity
  8
一般
370
               5
  6
STYLE_09
 62
               7
100
AcDbLine
 10
570.0
 20
-1780.0
 30
0.0
 11
570.0
 21
1820.0000000000005
 31
0.0
  0
LINE
  5
109
100
AcDbEntity
  8
寸法
370
               5
  6
Continuous
 62
               7
100
AcDbLine
 10
-2160.0
 20
-1441.8
 30
0.0
 11
-2160.0
 21
-1813.5999999999999
 31
0.0
  0
LINE
  5
10A
100
AcDbEntity
  8
寸法
370
               5
  6
Continuous
 62
               7
100
AcDbLine
 10
-1250.0
 20
-1441.8
 30
0.0
 11
-1250.0
 21
-1813.5999999999999
 31
0.0
  0
LINE
  5
10B
100
AcDbEntity
  8
寸法
370
               5
  6
Continuous
 62
               7
100
AcDbLine
 10
-2191.8000000000002
 20
-1750.0
 30
0.0
 11
-2160.0
 21
-1750.0
 31
0.0
  0
LINE
  5
10C
100
AcDbEntity
  8
寸法
370
               5
  6
Continuous
 62
               7
100
AcDbLine
 10
-1250.0
 20
-1750.0
 30
0.0
 11
-1218.2
 21
-1750.0
 31
0.0
  0
CIRCLE
  5
10E
100
AcDbEntity
  8
寸法
370
               5
 62
               7
100
AcDbCircle
 10
-2160.0
 20
-1750.0
 30
0.0
 40
19.998779296875
  0
CIRCLE
  5
10F
100
AcDbEntity
  8
寸法
370
               5
 62
               7
100
AcDbCircle
 10
-1250.0
 20
-1750.0
 30
0.0
 40
19.998779296875
  0
LINE
  5
10D
100
AcDbEntity
  8
寸法
370
               5
  6
Continuous
 62
               7
100
AcDbLine
 10
-2160.0
 20
-1750.0
 30
0.0
 11
-1250.0
 21
-1750.0
 31
0.0
  0
INSERT
  5
110
100
AcDbEntity
  8
寸法
 62
               7
100
AcDbBlockReference
  2
*U0
 10
0.0
 20
0.0
 30
0.0
  0
LINE
  5
111
100
AcDbEntity
  8
寸法
370
               5
  6
Continuous
 62
               7
100
AcDbLine
 10
-1250.0
 20
-1441.8
 30
0.0
 11
-1250.0
 21
-1813.5999999999999
 31
0.0
  0
LINE
  5
112
100
AcDbEntity
  8
寸法
370
               5
  6
Continuous
 62
               7
100
AcDbLine
 10
-340.0
 20
-1441.8
 30
0.0
 11
-340.0
 21
-1813.5999999999999
 31
0.0
  0
LINE
  5
113
100
AcDbEntity
  8
寸法
370
               5
  6
Continuous
 62
               7
100
AcDbLine
 10
-1281.8000000000002
 20
-1750.0
 30
0.0
 11
-1250.0
 21
-1750.0
 31
0.0
  0
LINE
  5
114
100
AcDbEntity
  8
寸法
370
               5
  6
Continuous
 62
               7
100
AcDbLine
 10
-340.0
 20
-1750.0
 30
0.0
 11
-308.20000000000005
 21
-1750.0
 31
0.0
  0
CIRCLE
  5
116
100
AcDbEntity
  8
寸法
370
               5
 62
               7
100
AcDbCircle
 10
-1250.0
 20
-1750.0
 30
0.0
 40
19.998779296875
  0
CIRCLE
  5
117
100
AcDbEntity
  8
寸法
370
               5
 62
               7
100
AcDbCircle
 10
-340.0
 20
-1750.0
 30
0.0
 40
19.998779296875
  0
LINE
  5
115
100
AcDbEntity
  8
寸法
370
               5
  6
Continuous
 62
               7
100
AcDbLine
 10
-1250.0
 20
-1750.0
 30
0.0
 11
-340.0
 21
-1750.0
 31
0.0
  0
INSERT
  5
118
100
AcDbEntity
  8
寸法
 62
               7
100
AcDbBlockReference
  2
*U1
 10
0.0
 20
0.0
 30
0.0
  0
LINE
  5
119
100
AcDbEntity
  8
寸法
370
               5
  6
Continuous
 62
               7
100
AcDbLine
 10
-340.0
 20
-1441.8
 30
0.0
 11
-340.0
 21
-1813.5999999999999
 31
0.0
  0
LINE
  5
11A
100
AcDbEntity
  8
寸法
370
               5
  6
Continuous
 62
               7
100
AcDbLine
 10
570.0
 20
-1441.8
 30
0.0
 11
570.0
 21
-1813.5999999999999
 31
0.0
  0
LINE
  5
11B
100
AcDbEntity
  8
寸法
370
               5
  6
Continuous
 62
               7
100
AcDbLine
 10
-371.79999999999995
 20
-1750.0
 30
0.0
 11
-340.0
 21
-1750.0
 31
0.0
  0
LINE
  5
11C
100
AcDbEntity
  8
寸法
370
               5
  6
Continuous
 62
               7
100
AcDbLine
 10
570.0
 20
-1750.0
 30
0.0
 11
601.79999999999995
 21
-1750.0
 31
0.0
  0
CIRCLE
  5
11E
100
AcDbEntity
  8
寸法
370
               5
 62
               7
100
AcDbCircle
 10
-340.0
 20
-1750.0
 30
0.0
 40
19.998779296875
  0
CIRCLE
  5
11F
100
AcDbEntity
  8
寸法
370
               5
 62
               7
100
AcDbCircle
 10
570.0
 20
-1750.0
 30
0.0
 40
19.998779296875
  0
LINE
  5
11D
100
AcDbEntity
  8
寸法
370
               5
  6
Continuous
 62
               7
100
AcDbLine
 10
-340.0
 20
-1750.0
 30
0.0
 11
570.0
 21
-1750.0
 31
0.0
  0
INSERT
  5
120
100
AcDbEntity
  8
寸法
 62
               7
100
AcDbBlockReference
  2
*U2
 10
0.0
 20
0.0
 30
0.0
  0
LINE
  5
121
100
AcDbEntity
  8
寸法
370
               5
  6
Continuous
 62
               7
100
AcDbLine
 10
570.0
 20
-1441.8
 30
0.0
 11
570.0
 21
-1813.5999999999999
 31
0.0
  0
LINE
  5
122
100
AcDbEntity
  8
寸法
370
               5
  6
Continuous
 62
               7
100
AcDbLine
 10
970.0
 20
-1436.7744623720041
 30
0.0
 11
970.0
 21
-1813.5999999999999
 31
0.0
  0
LINE
  5
123
100
AcDbEntity
  8
寸法
370
               5
  6
Continuous
 62
               7
100
AcDbLine
 10
538.20000000000005
 20
-1750.0
 30
0.0
 11
570.0
 21
-1750.0
 31
0.0
  0
LINE
  5
124
100
AcDbEntity
  8
寸法
370
               5
  6
Continuous
 62
               7
100
AcDbLine
 10
970.0
 20
-1750.0
 30
0.0
 11
1001.8
 21
-1750.0
 31
0.0
  0
CIRCLE
  5
126
100
AcDbEntity
  8
寸法
370
               5
 62
               7
100
AcDbCircle
 10
570.0
 20
-1750.0
 30
0.0
 40
19.998779296875
  0
CIRCLE
  5
127
100
AcDbEntity
  8
寸法
370
               5
 62
               7
100
AcDbCircle
 10
970.0
 20
-1750.0
 30
0.0
 40
19.998779296875
  0
LINE
  5
125
100
AcDbEntity
  8
寸法
370
               5
  6
Continuous
 62
               7
100
AcDbLine
 10
570.0
 20
-1750.0
 30
0.0
 11
970.0
 21
-1750.0
 31
0.0
  0
INSERT
  5
128
100
AcDbEntity
  8
寸法
 62
               7
100
AcDbBlockReference
  2
*U3
 10
0.0
 20
0.0
 30
0.0
  0
LINE
  5
129
100
AcDbEntity
  8
寸法
370
               5
  6
Continuous
 62
               7
100
AcDbLine
 10
-2160.0
 20
1621.8
 30
0.0
 11
-2160.0
 21
1883.5999999999999
 31
0.0
  0
LINE
  5
12A
100
AcDbEntity
  8
寸法
370
               5
  6
Continuous
 62
               7
100
AcDbLine
 10
-1250.0
 20
1621.8
 30
0.0
 11
-1250.0
 21
1883.5999999999999
 31
0.0
  0
LINE
  5
12B
100
AcDbEntity
  8
寸法
370
               5
  6
Continuous
 62
               7
100
AcDbLine
 10
-2191.8000000000002
 20
1820.0
 30
0.0
 11
-2160.0
 21
1820.0
 31
0.0
  0
LINE
  5
12C
100
AcDbEntity
  8
寸法
370
               5
  6
Continuous
 62
               7
100
AcDbLine
 10
-1250.0
 20
1820.0
 30
0.0
 11
-1218.2
 21
1820.0
 31
0.0
  0
CIRCLE
  5
12E
100
AcDbEntity
  8
寸法
370
               5
 62
               7
100
AcDbCircle
 10
-2160.0
 20
1820.0
 30
0.0
 40
19.998779296875
  0
CIRCLE
  5
12F
100
AcDbEntity
  8
寸法
370
               5
 62
               7
100
AcDbCircle
 10
-1250.0
 20
1820.0
 30
0.0
 40
19.998779296875
  0
LINE
  5
12D
100
AcDbEntity
  8
寸法
370
               5
  6
Continuous
 62
               7
100
AcDbLine
 10
-2160.0
 20
1820.0
 30
0.0
 11
-1250.0
 21
1820.0
 31
0.0
  0
INSERT
  5
130
100
AcDbEntity
  8
寸法
 62
               7
100
AcDbBlockReference
  2
*U4
 10
0.0
 20
0.0
 30
0.0
  0
LINE
  5
131
100
AcDbEntity
  8
寸法
370
               5
  6
Continuous
 62
               7
100
AcDbLine
 10
-1250.0
 20
1621.8
 30
0.0
 11
-1250.0
 21
1883.5999999999999
 31
0.0
  0
LINE
  5
132
100
AcDbEntity
  8
寸法
370
               5
  6
Continuous
 62
               7
100
AcDbLine
 10
-340.0
 20
1621.8
 30
0.0
 11
-340.0
 21
1883.5999999999999
 31
0.0
  0
LINE
  5
133
100
AcDbEntity
  8
寸法
370
               5
  6
Continuous
 62
               7
100
AcDbLine
 10
-1281.8000000000002
 20
1820.0
 30
0.0
 11
-1250.0
 21
1820.0
 31
0.0
  0
LINE
  5
134
100
AcDbEntity
  8
寸法
370
               5
  6
Continuous
 62
               7
100
AcDbLine
 10
-340.0
 20
1820.0
 30
0.0
 11
-308.20000000000005
 21
1820.0
 31
0.0
  0
CIRCLE
  5
136
100
AcDbEntity
  8
寸法
370
               5
 62
               7
100
AcDbCircle
 10
-1250.0
 20
1820.0
 30
0.0
 40
19.998779296875
  0
CIRCLE
  5
137
100
AcDbEntity
  8
寸法
370
               5
 62
               7
100
AcDbCircle
 10
-340.0
 20
1820.0
 30
0.0
 40
19.998779296875
  0
LINE
  5
135
100
AcDbEntity
  8
寸法
370
               5
  6
Continuous
 62
               7
100
AcDbLine
 10
-1250.0
 20
1820.0
 30
0.0
 11
-340.0
 21
1820.0
 31
0.0
  0
INSERT
  5
138
100
AcDbEntity
  8
寸法
 62
               7
100
AcDbBlockReference
  2
*U5
 10
0.0
 20
0.0
 30
0.0
  0
LINE
  5
139
100
AcDbEntity
  8
寸法
370
               5
  6
Continuous
 62
               7
100
AcDbLine
 10
-340.0
 20
1621.8
 30
0.0
 11
-340.0
 21
1883.5999999999999
 31
0.0
  0
LINE
  5
13A
100
AcDbEntity
  8
寸法
370
               5
  6
Continuous
 62
               7
100
AcDbLine
 10
570.0
 20
1621.8
 30
0.0
 11
570.0
 21
1883.5999999999999
 31
0.0
  0
LINE
  5
13B
100
AcDbEntity
  8
寸法
370
               5
  6
Continuous
 62
               7
100
AcDbLine
 10
-371.79999999999995
 20
1820.0
 30
0.0
 11
-340.0
 21
1820.0
 31
0.0
  0
LINE
  5
13C
100
AcDbEntity
  8
寸法
370
               5
  6
Continuous
 62
               7
100
AcDbLine
 10
570.0
 20
1820.0
 30
0.0
 11
601.79999999999995
 21
1820.0
 31
0.0
  0
CIRCLE
  5
13E
100
AcDbEntity
  8
寸法
370
               5
 62
               7
100
AcDbCircle
 10
-340.0
 20
1820.0
 30
0.0
 40
19.998779296875
  0
CIRCLE
  5
13F
100
AcDbEntity
  8
寸法
370
               5
 62
               7
100
AcDbCircle
 10
570.0
 20
1820.0
 30
0.0
 40
19.998779296875
  0
LINE
  5
13D
100
AcDbEntity
  8
寸法
370
               5
  6
Continuous
 62
               7
100
AcDbLine
 10
-340.0
 20
1820.0
 30
0.0
 11
570.0
 21
1820.0
 31
0.0
  0
INSERT
  5
140
100
AcDbEntity
  8
寸法
 62
               7
100
AcDbBlockReference
  2
*U6
 10
0.0
 20
0.0
 30
0.0
  0
LINE
  5
141
100
AcDbEntity
  8
寸法
370
               5
  6
Continuous
 62
               7
100
AcDbLine
 10
570.0
 20
1621.8
 30
0.0
 11
570.0
 21
1883.5999999999999
 31
0.0
  0
LINE
  5
142
100
AcDbEntity
  8
寸法
370
               5
  6
Continuous
 62
               7
100
AcDbLine
 10
970.0
 20
1621.8
 30
0.0
 11
970.0
 21
1883.5999999999999
 31
0.0
  0
LINE
  5
143
100
AcDbEntity
  8
寸法
370
               5
  6
Continuous
 62
               7
100
AcDbLine
 10
538.20000000000005
 20
1820.0
 30
0.0
 11
570.0
 21
1820.0
 31
0.0
  0
LINE
  5
144
100
AcDbEntity
  8
寸法
370
               5
  6
Continuous
 62
               7
100
AcDbLine
 10
970.0
 20
1820.0
 30
0.0
 11
1001.8
 21
1820.0
 31
0.0
  0
CIRCLE
  5
146
100
AcDbEntity
  8
寸法
370
               5
 62
               7
100
AcDbCircle
 10
570.0
 20
1820.0
 30
0.0
 40
19.998779296875
  0
CIRCLE
  5
147
100
AcDbEntity
  8
寸法
370
               5
 62
               7
100
AcDbCircle
 10
970.0
 20
1820.0
 30
0.0
 40
19.998779296875
  0
LINE
  5
145
100
AcDbEntity
  8
寸法
370
               5
  6
Continuous
 62
               7
100
AcDbLine
 10
570.0
 20
1820.0
 30
0.0
 11
970.0
 21
1820.0
 31
0.0
  0
INSERT
  5
148
100
AcDbEntity
  8
寸法
 62
               7
100
AcDbBlockReference
  2
*U7
 10
0.0
 20
0.0
 30
0.0
  0
LINE
  5
149
100
AcDbEntity
  8
寸法
370
               5
  6
Continuous
 62
               7
100
AcDbLine
 10
-2631.8000000000002
 20
-1410.0
 30
0.0
 11
-2703.5999999999999
 21
-1410.0
 31
0.0
  0
LINE
  5
14A
100
AcDbEntity
  8
寸法
370
               5
  6
Continuous
 62
               7
100
AcDbLine
 10
-2631.8000000000002
 20
1590.0
 30
0.0
 11
-2703.5999999999999
 21
1590.0
 31
0.0
  0
LINE
  5
14B
100
AcDbEntity
  8
寸法
370
               5
  6
Continuous
 62
               7
100
AcDbLine
 10
-2640.0
 20
-1441.8
 30
0.0
 11
-2640.0
 21
-1410.0
 31
0.0
  0
LINE
  5
14C
100
AcDbEntity
  8
寸法
370
               5
  6
Continuous
 62
               7
100
AcDbLine
 10
-2640.0
 20
1590.0
 30
0.0
 11
-2640.0
 21
1621.8
 31
0.0
  0
CIRCLE
  5
14E
100
AcDbEntity
  8
寸法
370
               5
 62
               7
100
AcDbCircle
 10
-2640.0
 20
-1410.0
 30
0.0
 40
19.998779296875
  0
CIRCLE
  5
14F
100
AcDbEntity
  8
寸法
370
               5
 62
               7
100
AcDbCircle
 10
-2640.0
 20
1590.0
 30
0.0
 40
19.998779296875
  0
LINE
  5
14D
100
AcDbEntity
  8
寸法
370
               5
  6
Continuous
 62
               7
100
AcDbLine
 10
-2640.0
 20
-1410.0
 30
0.0
 11
-2640.0
 21
1590.0
 31
0.0
  0
INSERT
  5
150
100
AcDbEntity
  8
寸法
 62
               7
100
AcDbBlockReference
  2
*U8
 10
0.0
 20
0.0
 30
0.0
  0
LINE
  5
151
100
AcDbEntity
  8
一般
370
               5
  6
STYLE_09
 62
               7
100
AcDbLine
 10
-1400.0
 20
-1590.0
 30
0.0
 11
-1400.0
 21
-1272.0
 31
0.0
  0
LINE
  5
152
100
AcDbEntity
  8
一般
370
               5
  6
STYLE_09
 62
               7
100
AcDbLine
 10
720.0
 20
-1590.0
 30
0.0
 11
720.0
 21
-1248.0
 31
0.0
  0
LINE
  5
153
100
AcDbEntity
  8
寸法
370
               5
  6
Continuous
 62
               7
100
AcDbLine
 10
-1400.0
 20
-1443.8
 30
0.0
 11
-1400.0
 21
-1654.5333333333333
 31
0.0
  0
LINE
  5
154
100
AcDbEntity
  8
寸法
370
               5
  6
Continuous
 62
               7
100
AcDbLine
 10
-1250.0
 20
-1445.8
 30
0.0
 11
-1250.0
 21
-1654.5333333333333
 31
0.0
  0
LINE
  5
155
100
AcDbEntity
  8
寸法
370
               5
  6
Continuous
 62
               7
100
AcDbLine
 10
-1431.8
 20
-1590.9333333333334
 30
0.0
 11
-1400.0
 21
-1590.9333333333334
 31
0.0
  0
LINE
  5
156
100
AcDbEntity
  8
寸法
370
               5
  6
Continuous
 62
               7
100
AcDbLine
 10
-1250.0
 20
-1590.9333333333334
 30
0.0
 11
-1218.2
 21
-1590.9333333333334
 31
0.0
  0
LINE
  5
157
100
AcDbEntity
  8
寸法
370
               5
  6
Continuous
 62
               7
100
AcDbLine
 10
-1400.0
 20
-1590.9333333333334
 30
0.0
 11
-1557.0
 21
-1590.9333333333334
 31
0.0
  0
CIRCLE
  5
159
100
AcDbEntity
  8
寸法
370
               5
 62
               7
100
AcDbCircle
 10
-1400.0
 20
-1590.9333333333334
 30
0.0
 40
19.998779296875
  0
CIRCLE
  5
15A
100
AcDbEntity
  8
寸法
370
               5
 62
               7
100
AcDbCircle
 10
-1250.0
 20
-1590.9333333333334
 30
0.0
 40
19.998779296875
  0
LINE
  5
158
100
AcDbEntity
  8
寸法
370
               5
  6
Continuous
 62
               7
100
AcDbLine
 10
-1400.0
 20
-1590.9333333333334
 30
0.0
 11
-1250.0
 21
-1590.9333333333334
 31
0.0
  0
INSERT
  5
15B
100
AcDbEntity
  8
寸法
 62
               7
100
AcDbBlockReference
  2
*U9
 10
0.0
 20
0.0
 30
0.0
  0
LINE
  5
15C
100
AcDbEntity
  8
寸法
370
               5
  6
Continuous
 62
               7
100
AcDbLine
 10
570.0
 20
-1473.5999999999999
 30
0.0
 11
570.0
 21
-1653.5999999999999
 31
0.0
  0
LINE
  5
15D
100
AcDbEntity
  8
寸法
370
               5
  6
Continuous
 62
               7
100
AcDbLine
 10
720.0
 20
-1499.4999999999998
 30
0.0
 11
720.0
 21
-1653.5999999999999
 31
0.0
  0
LINE
  5
15E
100
AcDbEntity
  8
寸法
370
               5
  6
Continuous
 62
               7
100
AcDbLine
 10
538.20000000000005
 20
-1590.0
 30
0.0
 11
570.0
 21
-1590.0
 31
0.0
  0
LINE
  5
15F
100
AcDbEntity
  8
寸法
370
               5
  6
Continuous
 62
               7
100
AcDbLine
 10
720.0
 20
-1590.0
 30
0.0
 11
751.79999999999995
 21
-1590.0
 31
0.0
  0
LINE
  5
160
100
AcDbEntity
  8
寸法
370
               5
  6
Continuous
 62
               7
100
AcDbLine
 10
720.0
 20
-1590.0
 30
0.0
 11
907.0
 21
-1590.0
 31
0.0
  0
CIRCLE
  5
162
100
AcDbEntity
  8
寸法
370
               5
 62
               7
100
AcDbCircle
 10
570.0
 20
-1590.0
 30
0.0
 40
19.998779296875
  0
CIRCLE
  5
163
100
AcDbEntity
  8
寸法
370
               5
 62
               7
100
AcDbCircle
 10
720.0
 20
-1590.0
 30
0.0
 40
19.998779296875
  0
LINE
  5
161
100
AcDbEntity
  8
寸法
370
               5
  6
Continuous
 62
               7
100
AcDbLine
 10
570.0
 20
-1590.0
 30
0.0
 11
720.0
 21
-1590.0
 31
0.0
  0
INSERT
  5
164
100
AcDbEntity
  8
寸法
 62
               7
100
AcDbBlockReference
  2
*U10
 10
0.0
 20
0.0
 30
0.0
  0
LINE
  5
165
100
AcDbEntity
  8
一般
370
               5
  6
STYLE_01
 62
               7
100
AcDbLine
 10
711.0
 20
-1410.0
 30
0.0
 11
711.0
 21
-1290.0
 31
0.0
  0
LINE
  5
166
100
AcDbEntity
  8
一般
370
               5
  6
STYLE_01
 62
               7
100
AcDbLine
 10
729.0
 20
-1410.0
 30
0.0
 11
729.0
 21
-1290.0
 31
0.0
  0
LINE
  5
167
100
AcDbEntity
  8
一般
370
               5
  6
STYLE_01
 62
               7
100
AcDbLine
 10
-1409.0
 20
-1412.0
 30
0.0
 11
-1409.0
 21
-1288.0
 31
0.0
  0
LINE
  5
168
100
AcDbEntity
  8
一般
370
               5
  6
STYLE_01
 62
               7
100
AcDbLine
 10
-1391.0
 20
-1412.0
 30
0.0
 11
-1391.0
 21
-1288.0
 31
0.0
  0
LINE
  5
169
100
AcDbEntity
  8
寸法
370
               5
  6
Continuous
 62
               7
100
AcDbLine
 10
-340.0
 20
-1091.8
 30
0.0
 11
-340.0
 21
-1653.5999999999999
 31
0.0
  0
LINE
  5
16A
100
AcDbEntity
  8
寸法
370
               5
  6
Continuous
 62
               7
100
AcDbLine
 10
-190.0
 20
-1291.8
 30
0.0
 11
-190.0
 21
-1653.5999999999999
 31
0.0
  0
LINE
  5
16B
100
AcDbEntity
  8
寸法
370
               5
  6
Continuous
 62
               7
100
AcDbLine
 10
-371.80000000000001
 20
-1590.0
 30
0.0
 11
-340.0
 21
-1590.0
 31
0.0
  0
LINE
  5
16C
100
AcDbEntity
  8
寸法
370
               5
  6
Continuous
 62
               7
100
AcDbLine
 10
-190.0
 20
-1590.0
 30
0.0
 11
-158.19999999999999
 21
-1590.0
 31
0.0
  0
LINE
  5
16D
100
AcDbEntity
  8
寸法
370
               5
  6
Continuous
 62
               7
100
AcDbLine
 10
-190.0
 20
-1590.0
 30
0.0
 11
-3.0
 21
-1590.0
 31
0.0
  0
CIRCLE
  5
16F
100
AcDbEntity
  8
寸法
370
               5
 62
               7
100
AcDbCircle
 10
-340.0
 20
-1590.0
 30
0.0
 40
19.998779296875
  0
CIRCLE
  5
170
100
AcDbEntity
  8
寸法
370
               5
 62
               7
100
AcDbCircle
 10
-190.0
 20
-1590.0
 30
0.0
 40
19.998779296875
  0
LINE
  5
16E
100
AcDbEntity
  8
寸法
370
               5
  6
Continuous
 62
               7
100
AcDbLine
 10
-340.0
 20
-1590.0
 30
0.0
 11
-190.0
 21
-1590.0
 31
0.0
  0
INSERT
  5
171
100
AcDbEntity
  8
寸法
 62
               7
100
AcDbBlockReference
  2
*U11
 10
0.0
 20
0.0
 30
0.0
  0
LINE
  5
172
100
AcDbEntity
  8
一般
370
               5
  6
STYLE_01
 62
               7
100
AcDbLine
 10
-199.0
 20
-1410.0
 30
0.0
 11
-199.0
 21
-1290.0
 31
0.0
  0
LINE
  5
173
100
AcDbEntity
  8
一般
370
               5
  6
STYLE_01
 62
               7
100
AcDbLine
 10
-181.0
 20
-1410.0
 30
0.0
 11
-181.0
 21
-1290.0
 31
0.0
  0
LINE
  5
174
100
AcDbEntity
  8
寸法
370
               5
  6
Continuous
 62
               7
100
AcDbLine
 10
-2560.0
 20
-1711.8
 30
0.0
 11
-2560.0
 21
-1998.5999999999999
 31
0.0
  0
LINE
  5
175
100
AcDbEntity
  8
寸法
370
               5
  6
Continuous
 62
               7
100
AcDbLine
 10
970.0
 20
-1781.8
 30
0.0
 11
970.0
 21
-1998.5999999999999
 31
0.0
  0
LINE
  5
176
100
AcDbEntity
  8
寸法
370
               5
  6
Continuous
 62
               7
100
AcDbLine
 10
-2591.8000000000002
 20
-1935.0
 30
0.0
 11
-2560.0
 21
-1935.0
 31
0.0
  0
LINE
  5
177
100
AcDbEntity
  8
寸法
370
               5
  6
Continuous
 62
               7
100
AcDbLine
 10
970.0
 20
-1935.0
 30
0.0
 11
1001.8
 21
-1935.0
 31
0.0
  0
CIRCLE
  5
179
100
AcDbEntity
  8
寸法
370
               5
 62
               7
100
AcDbCircle
 10
-2560.0
 20
-1935.0
 30
0.0
 40
19.998779296875
  0
CIRCLE
  5
17A
100
AcDbEntity
  8
寸法
370
               5
 62
               7
100
AcDbCircle
 10
970.0
 20
-1935.0
 30
0.0
 40
19.998779296875
  0
LINE
  5
178
100
AcDbEntity
  8
寸法
370
               5
  6
Continuous
 62
               7
100
AcDbLine
 10
-2560.0
 20
-1935.0
 30
0.0
 11
970.0
 21
-1935.0
 31
0.0
  0
INSERT
  5
17B
100
AcDbEntity
  8
寸法
 62
               7
100
AcDbBlockReference
  2
*U12
 10
0.0
 20
0.0
 30
0.0
  0
LINE
  5
17C
100
AcDbEntity
  8
一般
370
               5
  6
STYLE_05
 62
               7
100
AcDbLine
 10
-1360.0
 20
1380.0
 30
0.0
 11
-230.0
 21
1380.0
 31
0.0
  0
LINE
  5
17D
100
AcDbEntity
  8
一般
370
               5
  6
STYLE_09
 62
               7
100
AcDbLine
 10
1400.0
 20
1820.0
 30
0.0
 11
1400.0
 21
-1530.0
 31
0.0
  0
LINE
  5
17E
100
AcDbEntity
  8
一般
370
               5
  6
Continuous
 62
               7
100
AcDbLine
 10
-890.0
 20
1630.0
 30
0.0
 11
-890.0
 21
1750.0
 31
0.0
  0
LINE
  5
17F
100
AcDbEntity
  8
一般
370
               5
  6
Continuous
 62
               7
100
AcDbLine
 10
-680.0
 20
1750.0
 30
0.0
 11
-890.0
 21
1750.0
 31
0.0
  0
LINE
  5
180
100
AcDbEntity
  8
一般
370
               5
  6
Continuous
 62
               7
100
AcDbLine
 10
-680.0
 20
1750.0
 30
0.0
 11
-758.75
 21
1704.533666301317
 31
0.0
  0
LINE
  5
181
100
AcDbEntity
  8
一般
370
               5
  6
Continuous
 62
               7
100
AcDbLine
 10
-890.0
 20
-1480.0
 30
0.0
 11
-890.0
 21
-1600.0
 31
0.0
  0
LINE
  5
182
100
AcDbEntity
  8
一般
370
               5
  6
Continuous
 62
               7
100
AcDbLine
 10
-680.0
 20
-1600.0
 30
0.0
 11
-890.0
 21
-1600.0
 31
0.0
  0
LINE
  5
183
100
AcDbEntity
  8
一般
370
               5
  6
Continuous
 62
               7
100
AcDbLine
 10
-680.0
 20
-1600.0
 30
0.0
 11
-758.75
 21
-1554.533666301317
 31
0.0
  0
MTEXT
  5
184
100
AcDbEntity
  8
一般
 62
               7
100
AcDbMText
 10
-651.75
 20
1803.5
 30
0.0
 40
101.60000000000001
 41
0.0
 71
               1
 72
               1
  1
B
  7
ＭＳ ゴシック
 73
               1
 44
1.0
  0
MTEXT
  5
185
100
AcDbEntity
  8
一般
 62
               7
100
AcDbMText
 10
-620.0
 20
-1550.0
 30
0.0
 40
101.60000000000001
 41
667.36610229983467
 71
               1
 72
               1
  1
B
  7
ＭＳ ゴシック
 73
               1
 44
1.0
  0
LINE
  5
186
100
AcDbEntity
  8
一般
370
               5
  6
Continuous
 62
               7
100
AcDbLine
 10
1221.5
 20
-1663.2790561913616
 30
0.0
 11
1598.5
 21
-1663.2790561913616
 31
0.0
  0
LINE
  5
187
100
AcDbEntity
  8
一般
370
               5
  6
STYLE_09
 62
               7
100
AcDbLine
 10
1110.0
 20
1590.0
 30
0.0
 11
1600.0
 21
1590.0
 31
0.0
  0
LINE
  5
188
100
AcDbEntity
  8
一般
370
               5
  6
STYLE_09
 62
               7
100
AcDbLine
 10
1110.0
 20
-1420.0
 30
0.0
 11
1600.0
 21
-1420.0
 31
0.0
  0
INSERT
  5
189
100
AcDbEntity
  8
一般
 62
               7
100
AcDbBlockReference
  2
*U13
 10
0.0
 20
0.0
 30
0.0
  0
INSERT
  5
18A
100
AcDbEntity
  8
一般
 62
               7
100
AcDbBlockReference
  2
*U16
 10
0.0
 20
0.0
 30
0.0
  0
INSERT
  5
18B
100
AcDbEntity
  8
一般
 62
               7
100
AcDbBlockReference
  2
*U17
 10
0.0
 20
0.0
 30
0.0
  0
LINE
  5
18C
100
AcDbEntity
  8
一般
370
               5
  6
STYLE_09
 62
               7
100
AcDbLine
 10
-2160.0
 20
-1780.0
 30
0.0
 11
-2160.0
 21
1820.0000000000005
 31
0.0
  0
LINE
  5
18D
100
AcDbEntity
  8
寸法
370
               9
  6
Continuous
 62
               7
100
AcDbLine
 10
-2160.0
 20
1621.8
 30
0.0
 11
-2160.0
 21
1883.5999999999999
 31
0.0
  0
LINE
  5
18E
100
AcDbEntity
  8
寸法
370
               9
  6
Continuous
 62
               7
100
AcDbLine
 10
-2560.0
 20
1621.8
 30
0.0
 11
-2560.0
 21
1883.5999999999999
 31
0.0
  0
LINE
  5
18F
100
AcDbEntity
  8
寸法
370
               9
  6
Continuous
 62
               7
100
AcDbLine
 10
-2128.1999999999998
 20
1820.0
 30
0.0
 11
-2160.0
 21
1820.0
 31
0.0
  0
LINE
  5
190
100
AcDbEntity
  8
寸法
370
               9
  6
Continuous
 62
               7
100
AcDbLine
 10
-2560.0
 20
1820.0
 30
0.0
 11
-2591.8000000000002
 21
1820.0
 31
0.0
  0
CIRCLE
  5
192
100
AcDbEntity
  8
寸法
370
               9
 62
               7
100
AcDbCircle
 10
-2160.0
 20
1820.0
 30
0.0
 40
19.998779296875
  0
CIRCLE
  5
193
100
AcDbEntity
  8
寸法
370
               9
 62
               7
100
AcDbCircle
 10
-2560.0
 20
1820.0
 30
0.0
 40
19.998779296875
  0
LINE
  5
191
100
AcDbEntity
  8
寸法
370
               9
  6
Continuous
 62
               7
100
AcDbLine
 10
-2160.0
 20
1820.0
 30
0.0
 11
-2560.0
 21
1820.0
 31
0.0
  0
INSERT
  5
194
100
AcDbEntity
  8
寸法
 62
               7
100
AcDbBlockReference
  2
*U18
 10
0.0
 20
0.0
 30
0.0
  0
LINE
  5
195
100
AcDbEntity
  8
寸法
370
               9
  6
Continuous
 62
               7
100
AcDbLine
 10
-2160.0
 20
-1441.8
 30
0.0
 11
-2160.0
 21
-1813.5999999999999
 31
0.0
  0
LINE
  5
196
100
AcDbEntity
  8
寸法
370
               9
  6
Continuous
 62
               7
100
AcDbLine
 10
-2560.0
 20
-1441.8
 30
0.0
 11
-2560.0
 21
-1813.5999999999999
 31
0.0
  0
LINE
  5
197
100
AcDbEntity
  8
寸法
370
               9
  6
Continuous
 62
               7
100
AcDbLine
 10
-2128.1999999999998
 20
-1750.0
 30
0.0
 11
-2160.0
 21
-1750.0
 31
0.0
  0
LINE
  5
198
100
AcDbEntity
  8
寸法
370
               9
  6
Continuous
 62
               7
100
AcDbLine
 10
-2560.0
 20
-1750.0
 30
0.0
 11
-2591.8000000000002
 21
-1750.0
 31
0.0
  0
CIRCLE
  5
19A
100
AcDbEntity
  8
寸法
370
               9
 62
               7
100
AcDbCircle
 10
-2160.0
 20
-1750.0
 30
0.0
 40
19.998779296875
  0
CIRCLE
  5
19B
100
AcDbEntity
  8
寸法
370
               9
 62
               7
100
AcDbCircle
 10
-2560.0
 20
-1750.0
 30
0.0
 40
19.998779296875
  0
LINE
  5
199
100
AcDbEntity
  8
寸法
370
               9
  6
Continuous
 62
               7
100
AcDbLine
 10
-2160.0
 20
-1750.0
 30
0.0
 11
-2560.0
 21
-1750.0
 31
0.0
  0
INSERT
  5
19C
100
AcDbEntity
  8
寸法
 62
               7
100
AcDbBlockReference
  2
*U19
 10
0.0
 20
0.0
 30
0.0
  0
LINE
  5
19D
100
AcDbEntity
  8
一般
370
               5
  6
STYLE_09
 62
               7
100
AcDbLine
 10
-2310.0
 20
-1590.0
 30
0.0
 11
-2310.0
 21
-1248.0
 31
0.0
  0
LINE
  5
19E
100
AcDbEntity
  8
寸法
370
               5
  6
Continuous
 62
               7
100
AcDbLine
 10
-2160.0
 20
-1473.5999999999999
 30
0.0
 11
-2160.0
 21
-1653.5999999999999
 31
0.0
  0
LINE
  5
19F
100
AcDbEntity
  8
寸法
370
               5
  6
Continuous
 62
               7
100
AcDbLine
 10
-2310.0
 20
-1499.4999999999998
 30
0.0
 11
-2310.0
 21
-1653.5999999999999
 31
0.0
  0
LINE
  5
1A0
100
AcDbEntity
  8
寸法
370
               5
  6
Continuous
 62
               7
100
AcDbLine
 10
-2128.1999999999998
 20
-1590.0
 30
0.0
 11
-2160.0
 21
-1590.0
 31
0.0
  0
LINE
  5
1A1
100
AcDbEntity
  8
寸法
370
               5
  6
Continuous
 62
               7
100
AcDbLine
 10
-2310.0
 20
-1590.0
 30
0.0
 11
-2341.7999999999997
 21
-1590.0
 31
0.0
  0
LINE
  5
1A2
100
AcDbEntity
  8
寸法
370
               5
  6
Continuous
 62
               7
100
AcDbLine
 10
-2310.0
 20
-1590.0
 30
0.0
 11
-2497.0
 21
-1590.0
 31
0.0
  0
CIRCLE
  5
1A4
100
AcDbEntity
  8
寸法
370
               5
 62
               7
100
AcDbCircle
 10
-2160.0
 20
-1590.0
 30
0.0
 40
19.998779296875
  0
CIRCLE
  5
1A5
100
AcDbEntity
  8
寸法
370
               5
 62
               7
100
AcDbCircle
 10
-2310.0
 20
-1590.0
 30
0.0
 40
19.998779296875
  0
LINE
  5
1A3
100
AcDbEntity
  8
寸法
370
               5
  6
Continuous
 62
               7
100
AcDbLine
 10
-2160.0
 20
-1590.0
 30
0.0
 11
-2310.0
 21
-1590.0
 31
0.0
  0
INSERT
  5
1A6
100
AcDbEntity
  8
寸法
 62
               7
100
AcDbBlockReference
  2
*U20
 10
0.0
 20
0.0
 30
0.0
  0
LINE
  5
1A7
100
AcDbEntity
  8
一般
370
               5
  6
STYLE_01
 62
               7
100
AcDbLine
 10
-2301.0
 20
-1410.0
 30
0.0
 11
-2301.0
 21
-1290.0
 31
0.0
  0
LINE
  5
1A8
100
AcDbEntity
  8
一般
370
               5
  6
STYLE_01
 62
               7
100
AcDbLine
 10
-2319.0
 20
-1410.0
 30
0.0
 11
-2319.0
 21
-1290.0
 31
0.0
  0
INSERT
  5
1A9
100
AcDbEntity
  8
一般
 62
               7
100
AcDbBlockReference
  2
*U21
 10
0.0
 20
0.0
 30
0.0
  0
ENDSEC
  0
SECTION
  2
OBJECTS
  0
DICTIONARY
  5
19
100
AcDbDictionary
280
               0
281
               1
  3
ACAD_GROUP
350
1A
  3
ACAD_MLINESTYLE
350
1B
  3
ACAD_LAYOUT
350
1E
  3
ACAD_PLOTSETTINGS
350
22
  3
ACAD_PLOTSTYLENAME
350
1F
  0
DICTIONARY
  5
1A
102
{ACAD_REACTORS
330
19
102
}
100
AcDbDictionary
280
               0
281
               1
  0
DICTIONARY
  5
1B
102
{ACAD_REACTORS
330
19
102
}
100
AcDbDictionary
280
               0
281
               1
  3
Standard
350
1C
  0
MLINESTYLE
  5
1C
102
{ACAD_REACTORS
330
1B
102
}
100
AcDbMlineStyle
  2
Standard
 70
               0
  3

 62
               0
 51
90.0
 52
90.0
 71
               2
 49
0.5
 62
             256
  6
BYLAYER
 49
-0.5
 62
             256
  6
BYLAYER
  0
ACDBDICTIONARYWDFLT
  5
1F
102
{ACAD_REACTORS
330
19
102
}
100
AcDbDictionary
281
               1
  3
Normal
350
1D
100
AcDbDictionaryWithDefault
340
1D
  0
ACDBPLACEHOLDER
  5
1D
102
{ACAD_REACTORS
330
1F
102
}
  0
LAYOUT
  5
20
102
{ACAD_REACTORS
330
1E
102
}
100
AcDbPlotSettings
  1

  2

  4

  6

 40
0.0
 41
0.0
 42
0.0
 43
0.0
 44
0.0
 45
0.0
 46
0.0
 47
0.0
 48
0.0
 49
0.0
140
0.0
141
0.0
142
1.0
143
1.0
 70
            1024
 72
               0
 73
               0
 74
               0
  7

 75
               0
147
1.0
148
0.0
149
0.0
100
AcDbLayout
  1
Model
 70
               0
 71
               0
 10
0.0
 20
0.0
 11
0.0
 21
0.0
 12
0.0
 22
0.0
 32
0.0
 14
0.0
 24
0.0
 34
0.0
 15
0.0
 25
0.0
 35
0.0
146
0.0
 13
0.0
 23
0.0
 33
0.0
 16
0.0
 26
0.0
 36
0.0
 17
0.0
 27
0.0
 37
0.0
 76
               0
330
A
331
0
345
0
346
0
  0
LAYOUT
  5
21
102
{ACAD_REACTORS
330
1E
102
}
100
AcDbPlotSettings
  1

  2

  4

  6

 40
0.0
 41
0.0
 42
0.0
 43
0.0
 44
0.0
 45
0.0
 46
0.0
 47
0.0
 48
0.0
 49
0.0
140
0.0
141
0.0
142
1.0
143
1.0
 70
               0
 72
               0
 73
               0
 74
               0
  7

 75
               0
147
1.0
148
0.0
149
0.0
100
AcDbLayout
  1
Layout1
 70
               0
 71
               0
 10
0.0
 20
0.0
 11
0.0
 21
0.0
 12
0.0
 22
0.0
 32
0.0
 14
0.0
 24
0.0
 34
0.0
 15
0.0
 25
0.0
 35
0.0
146
0.0
 13
0.0
 23
0.0
 33
0.0
 16
0.0
 26
0.0
 36
0.0
 17
0.0
 27
0.0
 37
0.0
 76
               0
330
B
331
0
345
0
346
0
  0
DICTIONARY
  5
1E
102
{ACAD_REACTORS
330
19
102
}
100
AcDbDictionary
280
               0
281
               1
  3
Layout1
350
21
  3
Model
350
20
  0
DICTIONARY
  5
22
102
{ACAD_REACTORS
330
19
102
}
100
AcDbDictionary
280
               0
281
               1
  0
ENDSEC
  0
EOF
